Song name
# A B C D E F G H I J K L M N O P Q R S T U V W X Y Z

Justin Bieber - U Smile tab





-------------------------------------------------------------------------------
			     U Smile - justin bieber<3
-------------------------------------------------------------------------------
Tabbed by:kirbifreshh:]
Email:k11t14@swbell.net

ehh.
got bored and decided to tab it out
hope you like it:)

Tuning:standard:]

e|------4---------2---------2---------------------------------------------|
B|------6---------2---------2---------------------------------------------|
G|------6---------4---------3--x2-----------------------------------------|
D|------6---------4---------4---------------------------------------------|
A|------4---------2---------4---------------------------------------------|
E|------4---------2---------2---------------------------------------------|
Tap to rate this tab
 
# A B C D E F G H I J K L M N O P Q R S T U V W X Y Z