Song name
# A B C D E F G H I J K L M N O P Q R S T U V W X Y Z

Justin Bieber - Baby tab

"Baby" by Justin Bieber

Tabbed by Brandon Cabrera

Video of Brandon singing/playing it here:
http://www.youtube.com/watch?v=azxBFNM5Tq8

Key of D

Tuning: D A D G B D

 / = Slide up/down
 ^ = hammer on/off
 x = mute
 < > = hammonic
Intro:
-----------------------------------|
-----------------------------------|
--0---0--0---0--0---0--0---0-------|
----2------0------0------0------0--|
--3------2-------------------------|
----------------5------2------0----|

Verse 1 & 2:
---------------------------------------------------|
----------1---------------3------------------------|
------0-----0---0-----0-----0---0-----0-------0----|
----2---2-----2-----0---0-----0-----0---0---0---0--|
--3---------------2--------------------------------|
----------------------------------5-------4--------|

-------------|  ------------------------------|
----------0--|  ------1^0-0----------0--0-----|
------0------|  ------------2/1^0-0--0--0-----| (play at end of verse 2 only)
----4---4----|  ----2----------------5--4--0--|
-------------|  --3------------------x--x--0--|
--2----------|  ---------------------5--4--0--|

Chorus 1:
--0---0---0---0--|
--1---0---0---0--|
--0---0---0---0--|
--2---2---x---4--|
--3---2---5---2--|
----------5------|

Chorus 2:
--0----0----0----0--4/5--0----0----0----0---0--|
--0----1----0----0--0----0----1----0----0---0--|
--0----0----0----0--0----0----0----0----0---0--|
--2----2----0----4--4----2----2----0----4/--7--|
--2----3----5----2--2----2----3----5----2/--5--|
--2---------5------------2---------5----0---0--|

--0----0----0----0--4/5--0----0----0----0--|
--0----1----0----0--0----0----1----0----0--|
--0----0----0----0--0----0----0----0----0--|
--2----2----0----4--4----2----2----0----4--|
--2----3----5----2--2----2----3----5----2--|
--2---------5------------2---------5----0--|

Solo:(play 2x)
----------------------------------0-------------------|
------0-----------------------------------------------|
--0-0-------------------------0-0---5^7-5-4^5^4-<12>--|
-------------5-7/9-7-7-7^0----------------------------|
--3--/5--5-7---------------5/-2-----------------------|
------------------------------------------------------|

----------------------------------------------------|
------0---------------------------------------------|
--0-0-----------------------------0-----0-----0-----|
-------------5-7/9-7-7-7^0------0-----0-----0-------|
--3--/5--5-7-----------------10-----9-------------0-|
---------------------------0--------------2-----0---|

Outro: "Yeah, Yeah. Yeah, yeah."
------0---0---0----|
--0---1---0---0----|
--0---0---0---0----|
--0---2---2---4----|
--5---3---2---2----|
--5----------------|

(palm mute throughout this part)
-----------------------|
-----------------<12>--|
-------0---------<12>--|
--x----2--0------------|
--5----3--0-2/---------|
--5--------------------|

--0---0---0---0---0---0---0---0-------|
--0---1---0---0---0---1---0---x-------|
--0---0---0---0---0---0---0---7---x---|
--x---2---2---4---x---2---2---0---5---| (palm mute on last chord)
--5---3---2---2---5---3---2---0---5---|
--5-------2-------5-------2-------5---|
Tap to rate this tab
# A B C D E F G H I J K L M N O P Q R S T U V W X Y Z