Song name
# A B C D E F G H I J K L M N O P Q R S T U V W X Y Z

Justin Bieber - Mistletoe tab

We are going to perform this song!! @ 10/17/11 (Acoustic Night)
Play it in Raggae :) Add me up in FB if you got some questions (or just add me up :9)
Jass Cordaņo
E|--------------------------------|
B|--------------------------------|
G|------7----7----7----7----------| 
D|------8----8----8----8----------|
A|------8----8----8----8----------|
E|-6------------------------------|

I'ts the most beautiful time of the year

E|--------------------------------|
B|--------------------------------|
G|------10----10----10----10------| 
D|------10----10----10----10------|
A|-8------------------------------|
E|--------------------------------|

Running through the streets spreading so much cheer, 

E|--------------------------------|
B|--------------------------------|
G|------12----12----12----12------| 
D|------12----12----12----12------|
A|-10-----------------------------|
E|--------------------------------|

I should be playing in the winter snow

E|--------------------------------|
B|--------------------------------|
G|------8-----8-----8-----8-------| 
D|------8-----8-----8-----8-------|
A|--6-----------------------------|
E|--------------------------------|

But imma be under the mistletoe

And so on.. ENJOY! :9
Tap to rate this tab
# A B C D E F G H I J K L M N O P Q R S T U V W X Y Z