Song name
# A B C D E F G H I J K L M N O P Q R S T U V W X Y Z

Justin Bieber - Mistletoe tab

Mistletoe - Justin Bieber
tabbed by: XxTOKIO-HOTELxX



This is a very fun song to play in the guitar.. and pretty much the tabs are just the 
same on the whole song so its very easy.

Verse:

"
Its the most beautiful time of the year
Lights fill the streets spreading so much cheer"

E|----------------------------------------------------------|
B|----------------------------------------------------------|
G|-----------------9-9-9-9----11-11-11-11----7-7-7-7--------|
D|------7-7-7-7----9-9-9-9----11-11-11-11----7-7-7-7--------|
A|------7-7-7-7----7-7-7-7----9--9--9--9-----5-5-5-5--------|
E|-5----5-5-5-5---------------------------------------------| 2x


Chorus: on the part
"With you, shawty with you With you, shawty with you With you under the mistletoe"


E|----------------------------------------------------------|
B|----------------------------------------------------------|
G|-----------------9-9-9-9----11-11-11-11----7-7-7-7--------|
D|------7-7-7-7----9-9-9-9----11-11-11-11----7-7-7-7--------|
A|------7-7-7-7----7-7-7-7----9--9--9--9-----5-5-5-5--------|
E|------5-5-5-5---------------------------------------------|


Verse 2:
"Everyones gathering around the fire
Chestnuts roasting like a hot July"


E|----------------------------------------------------------|
B|----------------------------------------------------------|
G|-----------------9-9-9-9----11-11-11-11----7-7-7-7--------|
D|------7-7-7-7----9-9-9-9----11-11-11-11----7-7-7-7--------|
A|------7-7-7-7----7-7-7-7----9--9--9--9-----5-5-5-5--------|
E|------5-5-5-5---------------------------------------------| 2x



Chorus: (again)
"With you, shawty with you With you, shawty with you With you under the mistletoe"


E|----------------------------------------------------------|
B|----------------------------------------------------------|
G|-----------------9-9-9-9----11-11-11-11----7-7-7-7--------|
D|------7-7-7-7----9-9-9-9----11-11-11-11----7-7-7-7--------|
A|------7-7-7-7----7-7-7-7----9--9--9--9-----5-5-5-5--------|
E|------5-5-5-5---------------------------------------------| 2x


Bridge:
"Aye, love, the wise men followed the star
The way I followed my heart"

E|----------------------------------------------------------|
B|----------------------------------------------------------|
G|-----------------9-9-9-9----11-11-11-11----7-7-7-7--------|
D|------7-7-7-7----9-9-9-9----11-11-11-11----7-7-7-7--------|
A|------7-7-7-7----7-7-7-7----9--9--9--9-----5-5-5-5--------|
E|-5----5-5-5-5---------------------------------------------| 2x



(Repeat verse)Its the most beautiful time of the year
Lights fill the streets spreading so much cheer"

E|----------------------------------------------------------|
B|----------------------------------------------------------|
G|-----------------9-9-9-9----11-11-11-11----7-7-7-7--------|
D|------7-7-7-7----9-9-9-9----11-11-11-11----7-7-7-7--------|
A|------7-7-7-7----7-7-7-7----9--9--9--9-----5-5-5-5--------|
E|------5-5-5-5---------------------------------------------|


Chorus: (again)
"With you, shawty with you With you, shawty with you With you under the mistletoe"


E|----------------------------------------------------------|
B|----------------------------------------------------------|
G|-----------------9-9-9-9----11-11-11-11----7-7-7-7--------|
D|------7-7-7-7----9-9-9-9----11-11-11-11----7-7-7-7--------|
A|------7-7-7-7----7-7-7-7----9--9--9--9-----5-5-5-5--------|
E|------5-5-5-5---------------------------------------------| REPEAT THIS UNTIL THE SONG 
ENDS :D





HAPPY TABBING! :))
Tap to rate this tab
# A B C D E F G H I J K L M N O P Q R S T U V W X Y Z