Song name
# A B C D E F G H I J K L M N O P Q R S T U V W X Y Z

Justin Bieber - Christmas Love chords

Highlighted       Show chord diagrams
-----------------------------------------------------------------------------
			     Christmas Love - JUSTIN BIEBER
-----------------------------------------------------------------------------

Artist : Justin Bieber
Album : Under the MIstletoe
Song : Christmas Love
Year : 2011

Tabbed by : JBW
Tuning : Standard

No Capo Chords 

Chords Used :
       Bb    Dm   Dbm    Cm    C     Eb   Eb sus2   F    Gm

e|-----6-----5-----4-----3-----0------6-----6-------1-----3-----------------|
B|-----6-----6-----5-----4-----1------8-----8-------1-----3-----------------
G|-----7-----7-----6-----5-----0------8-----8-------2-----3-----------------|
D|-----8-----7-----6-----5-----2------8-----8-------3-----5-----------------|
A|-----8-----5-----4-----3-----3------6-----8-------3-----5-----------------|
E|-----6--------------------------------------------1-----3----------------|

Intro/Verse/Chorus    
(On the chorus or possibly on the verse you can play the F instead of the Eb sus2 if you choose)

Bb   Dm  Dbm  Cm    Eb    Eb sus2   (F)    Chorus ends on Eb

Pre- Chorus

Gm       
On every list I've ever sent
Eb
You're the gift I'd love the best
Gm                                   C
So deck the halls and all the rest, warm me up
           Eb
With your Christmas love


Bridge

F                         Gm
All the lovers round the world
               Eb
I can sing you Merry, Merry Christmas
Bb
Merry Merry Christmas
F                        Gm
And every boy and every girl
       Cm                   Eb
Stay close to the ones you love
And thank God above


||||||||||||||||||||||||||||||||||||||||||||||||||||||||||||||||||||||||||||||||||||||||


Capo 1st Fret

Chords Used :  
     A      C#m   Cm    B    Bm    D   D sus2 (?) E   F#m

e|----0-----4-----3-----2-----2-----2-----0-------0-----2------------------|
B|----2-----5-----4-----4-----3-----3-----3-------0-----2------------------|
G|----2-----6-----5-----4-----4-----2-----2-------1-----2------------------|
D|----2-----6-----5-----4-----4-----0-----2-------2-----4------------------|
A|----0-----4-----3-----2-----2-------------------2-----4------------------|
E|------------------------------------------------0-----2------------------|


Intro/Verse/Chorus    
(On the chorus or possibly on the verse you can play the E instead of the D sus2 if you choose)

A   C#m  Cm  Bm    D    Dsus2   (E)        Chorus ends on D

Pre- Chorus

F#m       
On every list I've ever sent
D
You're the gift I'd love the best
F#m                                  B
So deck the halls and all the rest, warm me up
           D
With your Christmas love


Bridge

E                         F#m
All the lovers round the world
               D
I can sing you Merry, Merry Christmas
A
Merry Merry Christmas
E                        F#m
And every boy and every girl
       Bm                   D
Stay close to the ones you love
And thank God above



here are the lyrics. You'll have to listen for the changes. The chords are all here though. 
If you choose to you could also make the minor chords a minor7 chord instead 
Enjoy and Have Fun :)



"Christmas Love"

Baby I will not pout
Baby I will not cry
Cause I got your love this Christmas time.
When the snow's on the ground
And it's freezing around
I got your love this Christmas time.

On every list I've ever sent
You're the gift I'd love the best
So deck the halls and all the rest, warm me up
With your Christmas love

Hey angel in the snow
I'm under the mistletoe
You are the one for my very own Christmas love
Tell Santa I'm cool this year
My present is standing right here
Thank God above for my very own Christmas Love

Like a beautiful tree, you can light up the room
But your kind of star can't be removed
Like a beautiful carol, I get lost in your song
And I will forever sing along

On every list I've ever sent
You're the gift I'd love the best
So deck the halls and all the rest, warm me up
With your Christmas love

Hey angel in the snow
I'm under the mistletoe
You are the one for my very own Christmas love
Tell Santa I'm cool this year
My present is standing right here
Thank God above for my very own Christmas love

All the lovers round the world
(All the lovers round the world)
I can sing you Merry, Merry Christmas
Merry Merry Christmas
(And Happy Holidays)
And every boy and every girl
Stay close to the ones you love
And thank God above
That you got someone this year
That can fill your heart with cheer

Hey angel in the snow
I'm under the mistletoe
You are the one for my very own Christmas love
Tell Santa I'm cool this year
My present is standing right here
Thank God above for my very own Christmas love

Hey angel in the snow
I'm under the mistletoe
You are the one for my very own Christmas love
Tell Santa I'm cool this year
My present is standing right here
Thank God above for my very own Christmas love

(For my very own Christmas love
For my very own Christmas love
Gimme a kiss, baby
Gimme a kiss, baby)




Tap to rate this tab
# A B C D E F G H I J K L M N O P Q R S T U V W X Y Z