Song name
# A B C D E F G H I J K L M N O P Q R S T U V W X Y Z

Justin Bieber - Be Alright tab

Capo on 4

Intro:

e|----------------------------------------------------------------|
B|--------0------------------------------0------------------------|
G|-0/1-------------1--------------0/1--------1--------------------|
D|-2----4-----2/4-----2-----------2----4-----2--2-----------------|
A|-2----2-----2-------2---2/4/2---2----2-----2--2--2/4-2----------|
E|------------------------0------------------------0--------------|


Verse

   E       B      C#m      A
e|----------------------------------------------------------------|
B|----------------------------------------------------------------|
G|-1--1-----------------------------------------------------------|
D|-2--2----4--4----6--6-------------x2----------------------------|
A|-2--2----2--2----4--4----7--7-----------------------------------|
E|-------------------------5--5-----------------------------------|

It's too tough to tab out all the notes, but the rest just continues to pluck these chords:

   E     B     C#m   A
e|-0-----2-----4-----5-----------------------------------|
B|-0-----4-----5-----5-----------------------------------|
G|-1-----4-----6-----6-----------------------------------|
D|-2-----4-----6-----7-----------------------------------|
A|-2-----2-----4-----7-----------------------------------|
E|-0-----2-----4-----5-----------------------------------|

Pluck these chords for the part "You know that I care for you.."

e|--2----4-----0-----0---------------------------------------|
B|--2----5-----0-----2---------------------------------------|
G|--2----6-----1-----2---------------------------------------|
D|--4----6-----2-----2---------------------------------------|
A|--4----4-----2-----0---------------------------------------|
E|--2----4-----0-----x---------------------------------------|

Thats pretty much it. Rate it if you liked it.
Tap to rate this tab
# A B C D E F G H I J K L M N O P Q R S T U V W X Y Z