Song name
# A B C D E F G H I J K L M N O P Q R S T U V W X Y Z

Justin Bieber - Be Alright tab

NOTE: I Now Have full tabs check out my youtube video for the full tabbed version>>>>>

https://www.youtube.com/user/anjelloguitar

>>>>Please subscribe<<<

Song arrangement:
Intro
Verse1
Verse2
Pre-Chorus
Chorus
Verse1
Chorus
Riff
Chorus
Pre-Chorus
Chorus
Bridge
Chorus
Verse1
Chorus
Outro

CAPO 1

Intro
e|-------x-------x----------------------x-------x----------------|
B|--0----x----3--x-----------------0----x----3--x--0-------------|
G|-------x--2----x-0h2-0----------------x--2----x--2--0--0-------|
D|-------x-------x-------0--------------x-------x-----2----------|
A|-------x-------x---------0h2p-0-------x-------x--------0h3-2---|
E|--0h3--x-------x-----------------0h3--x-------x----------------|



Verse 1
e|-----x---x------x---x------x---x---------x---x-----------------|
B|--3--x-3-x---3--x-3-x---0--x-0-x------1--x-1-x-----------------|
G|-----x---x---2--x-2-x------x---x---------x---x-----------------|
D|-----x---x------x---x---2--x-2-x------2--x-2-x-----------------|
A|-----x---x---0--x-0-x---2--x-2-x------3--x-3-x-----------------|
E|--3--x-3-x------x---x------x---x---------x---x-----------------|





NOTE: This is parts of the song. I Now Have full tabs check out my youtube video for the 
full tabbed version>>>>>

https://www.youtube.com/user/anjelloguitar

>>Please Subscribe!!!<<<

Tabbed by : Angelo Armendi
Tap to rate this tab
# A B C D E F G H I J K L M N O P Q R S T U V W X Y Z