Song name
# A B C D E F G H I J K L M N O P Q R S T U V W X Y Z

Justin Bieber - Be Alright tab

     Hi there!  Here is a super easy tab that goes along 
with my chords for "Be Alright":)  It plays nicely right 
along with the song from the CD (idk about live.) Trust 
me, it's really easy or I wouldn't be able to do it!! 
HAVE FUN!!!!!!!!
 
*I didn't put the tab throughout the middle of the song 
because it just repeats over and over...but I can add it
if it bugs ya!  Let me know*  


Standard Tuning:EADGBe
w/CAPO ON 1



INTRO-
         G        D          Em         C
e|-------------------------------------------------|
B|----------------3-----------0--------------------|
G|-------0-----------2---2-------0------0-----0----|
D|----------0-----0----0-----------2--------2------|
A|----------------------------2---------3----------|
E|-------3-----------------------------------------|

         G        D          Em      C
e|--------------------------------------------------|
B|----------------3----------0----------------------|
G|-------0-----------2----------0----------0--------|
D|----------0-----0----0-------------2---2----------|
A|---------------------------2-------3--------------|
E|-------3------------------------------------------|


VERSE-
          G                 D
e|---------------------------------------------------|
B|--------------3---------------3--------------------|
G|-------0--------0-------2--------2-----------------|
D|----------0-------0--------0-------0---------------|
A|------------------------0--------------------------|
E|-------3-------------------------------------------|

            G                D
Across the ocean, across the sea.  Startin' to

 
      Em                     C
e|---------------------------------------------------|
B|-----------0-------------------1-------------------|
G|---0---------0----------0---------0----------------|
D|-------2-------2-----------2--------2--------------|
A|---2--------------------3--------------------------|
E|---------------------------------------------------|

    Em                         C
    Forget the way you look at me now


        G                 D
e|---------------------------------------------------|
B|------------3---------------3----------------------|
G|-----0--------0-------2--------2-------------------|
D|--------0-------0--------0-------0-----------------|
A|----------------------0----------------------------|
E|-----3---------------------------------------------|

         G                     D
Over the mountains, across the sky


       Em                     C
e|---------------------------------------------------|
B|-----------0-------------------1-------------------|
G|---0---------0----------0---------0----------------|
D|-------2-------2-----------2--------2--------------|
A|---2--------------------3--------------------------|
E|---------------------------------------------------|
 
        Em                                    C
Need to see your face, I need to look in your eyes


          G                D
e|---------------------------------------------------|
B|------------3----------------3---------------------|
G|------0--------0-------2--------2------------------|
D|---------0-------0--------0-------0----------------|
A|-----------------------0---------------------------|
E|------3--------------------------------------------|

            G                      D
Through the storm and, through the clouds


       Em                     C
e|---------------------------------------------------|
B|-----------0-------------------1-------------------|
G|---0---------0----------0---------0----------------|
D|-------2-------2-----------2--------2--------------|
A|---2--------------------3--------------------------|
E|---------------------------------------------------|
 
             Em              C
Bumps in the road and upside down now


          G               D
e|---------------------------------------------------|
B|-------------3---------------3---------------------|
G|------0--------0-------2--------2------------------|
D|---------0-------0--------0------0-----------------|
A|-----------------------0---------------------------|
E|------3--------------------------------------------|

            G                       D
I know it's hard, babe, to sleep at night


    Em
e|----------------------|
B|-----------0----------|
G|---0---------0--------|
D|-------2-------2------|
A|---2------------------|
E|----------------------|

          Em
Don't you worry


CHORUS-

    C               G         D          Em         C
e|------------------------------------------------------------|
B|-------1-------------------3-----------0--------------------|
G|-0---0---0---0----0-----------2---2-------0------0-----0----|
D|---2-------2---------0-----0----0-----------2--------2------|
A|-3-------------------------------------2---------3----------|
E|------------------3-----------------------------------------|

       C                       G      D        Em C
'Cause everything's gonna be alright, ai-ai-ai-aight


            G        D          Em     C
e|----------------------------------------------------|
B|-------------------3----------0---------------------|
G|----------0-----------2---2------0---0--------------|
D|-------------0-----0----0---------------------------|
A|------------------------------2------3--------------|
E|----------3-----------------------------------------|

     G      D        Em C
Be alright, ai-ai-ai-aight


**(Continue the same picking pattern throughout, listen for 
variations like a high e here and there)**

             G               D
Through your sorrow, and the fights
         Em     
Dont you worry 
       C                      G       D        Em C 
'Cause everything's gonna be alright, ai-ai-ai-aight
     G      D        Em C
Be alright, ai-ai-ai-aight


     G          D
All alone in my room
                 Em                 C
Waiting for your phone call to come soon
        G                D
And for you ohh, I would walk a thousand miles
   Em
To be in your arms,
C
Holding my heart
 
   G     D       Em
Oh I, Oh I...  I love you
    C                       G      D        Em C
And everything's gonna be alright, ai-ai-ai-aight
     G      D        Em C
Be alright, ai-ai-ai-aight

            G                   D
Through the long nights and the bright lights
          Em
Don't you worry 
       C                       G      D        Em C
'Cause everything's gonna be alright, ai-ai-ai-aight
     G      D        Em C
Be alright, ai-ai-ai-aight


BRIDGE-

      Am
e|---------------------|
B|---------1-----------|
G|--2----2---2---2-----|
D|-----2-------2-------|
A|--0------------------|
E|---------------------|  
    
    Am
And you know that I care for you

      Em
e|---------------------|
B|----------0----------|
G|---0----0---0---0----|
D|------2-------2------|
A|---2-----------------|
E|---------------------|

Em
I'll always be there for you

           G                  D
e|-------------------------------------------------------|
B|--------------3-----------------3----------------------|
G|-------0----0---0---0-----2--------2-------------------|
D|----------0-------0----------0-------0-----------------|
A|--------------------------0----------------------------|
E|-------3-----------------------------------------------|

  G                         D
I promise I will stay right here

      Am
e|---------------------|
B|---------1-----------|
G|--2----2---2---2-----|
D|-----2-------2-------|
A|--0------------------|
E|---------------------| 

Am
I know that you want me too

      Em                 C
e|----------------------------------------|
B|----------0----------------1------------|
G|---0----0---0---0-----0-------0---------|
D|------2-------2----------2------2-------|
A|---2------------------3-----------------|
E|----------------------------------------|
Em                          C

Baby we can make it through anything


    C               G         D          Em         C
e|------------------------------------------------------------|
B|-------1-------------------3-----------0--------------------|
G|-0---0---0---0----0-----------2---2-------0------0-----0----|
D|---2-------2---------0-----0----0-----------2--------2------|
A|-3-------------------------------------2---------3----------|
E|------------------3-----------------------------------------|
       C                       G      D        Em C
'Cause everything's gonna be alright, ai-ai-ai-aight


           G         D          Em     C
e|----------------------------------------------------|
B|-------------------3----------0---------------------|
G|----------0-----------2----------0---0--------------|
D|-------------0-----0----0---------------------------|
A|------------------------------2------3--------------|
E|----------3-----------------------------------------|

     G      D        Em C
Be alright, ai-ai-ai-aight


            G                 D
e|--------------------------------------------------------|
B|-----------------3---------------3----------------------|
G|----------0--------0-------2--------2-------------------|
D|-------------0-------0--------0------0------------------|
A|---------------------------0----------------------------|
E|----------3---------------------------------------------|

            G               D 
Through the sorrow, and the fights

    Em
e|----------------------|
B|---0-------0----------|
G|-------------0--------|
D|-------2-------2------|
A|---2------------------|
E|----------------------|
          Em
Don't you worry


    C               G         D          Em         C
e|------------------------------------------------------------|
B|-------1-------------------3-----------0--------------------|
G|-0---0---0---0----0-----------2---2-------0------0-----0----|
D|---2-------2---------0-----0----0-----------2--------2------|
A|-3-------------------------------------2---------3----------|
E|------------------3-----------------------------------------|
       C                       G      D        Em C
'Cause everything's gonna be alright, ai-ai-ai-aight


           G         D          Em     C
e|----------------------------------------------------|
B|-------------------3----------0---------------------|
G|----------0-----------2----------0---0--------------|
D|-------------0-----0----0---------------------------|
A|------------------------------2------3--------------|
E|----------3-----------------------------------------|

     G      D        Em C
Be alright, ai-ai-ai-aight

            G                 D
e|--------------------------------------------------------|
B|-----------------3---------------3----------------------|
G|----------0--------0-------2--------2-------------------|
D|-------------0-------0--------0------0------------------|
A|---------------------------0----------------------------|
E|----------3---------------------------------------------|

            G               D 
Through the sorrow, and the fights

    Em
e|----------------------|
B|---0-------0----------|
G|-------------0--------|
D|-------2-------2------|
A|---2------------------|
E|----------------------|

           Em
Don't you worry
    
    C                    G        
e|-----------------------------3---3--|
B|----------1------------------3------|
G|-0-----0-----0-------------0--------|
D|----2--------------------0----------|
A|-3---------------------2------------|
E|---------------------3--------------|

C -once                 G -once      
Everything's gonna be alri-ai-ai-aight




Have fun with it!! And RATE:)
cristy♥twilight
Tap to rate this tab
 
# A B C D E F G H I J K L M N O P Q R S T U V W X Y Z