Song name
# A B C D E F G H I J K L M N O P Q R S T U V W X Y Z

Justin Bieber - Beauty And A Beat tab

Justin Bieber - Beauty and a beat

I Now have Full song tabs at http://www.youtube.com/user/anjelloguitar
Subscribe for more tabs


|-1-1-1-1-x-1-1-1-1----------------------------------------1-1-1-1-x-1-1-1-1-|
|-1-1-1-1-x-1-1-1-1--0-0-0-0-x-0-0-0-0--1-1-1-1-x-1-1-1-1--1-1-1-1-x-1-1-1-1-|
|-2-2-2-2-x-2-2-2-2--2-2-2-2-x-2-2-2-2--0-0-0-0-x-0-0-0-0--2-2-2-2-x-2-2-2-2-|
|-3-3-3-3-x-3-3-3-3--2-2-2-2-x-2-2-2-2--2-2-2-2-x-2-2-2-2--2-2-2-2-x-2-2-2-2-|
|-3-3-3-3-x-3-3-3-3---------------------3-3-3-3-x-3-3-3-3--3-3-3-3-x-3-3-3-3-|
|-1-1-1-1--1-1-1-1-----------------------------------------1-1-1-1-x-1-1-1-1-|

|-1--------1--------1-|
|-1--0--1--1--0--1--1-|
|-2--2--0--2--2--0--2-|
|-3--2--2--3--2--2--3-|
|-3-----3--3-----3--3-|
|-1--------1--------1-|

I Now have Full song tabs at http://www.youtube.com/user/anjelloguitar
Subscribe for more tabs
Tap to rate this tab
# A B C D E F G H I J K L M N O P Q R S T U V W X Y Z