Song name
# A B C D E F G H I J K L M N O P Q R S T U V W X Y Z

Justin Bieber - Be Alright tab

Hey guys, this is the actually version of the song and not a capo required version that 
has seem to make it's way around the web as the standard for this song.
Which is wrong. I learned this from multiple live videos of it because the capo way 
didn't sound right. So here you go.
Please listen to the rhythm of the song and look at the tabs to get it right.

X-Slap With Palm
/-Slide
()-Optional



~Intro (Chorus)***********************************************************

A Maj                       F# Minor or D Major     A Major

E---------------------------|-----------------------|--------------------|
B-------5----x---------5----|-----------------------|---2----------------|
G-------6----x--------------|---2-----4-----6-------|---2----------------|
D-------7----x---/9---------|---4-----4----(4)------|---2----------------|
A---------------------------|-----------------------|---0----------------|
E--5------------------------|-----------------------|--------------------|
                             ^ Hammer on from 2-4-6

A Maj

E---------------------------|------------------------|--------------------|
B-------5----x---------5----|------------------------|---2----------------|
G-------6----x--------------|-------/6-------4-------|---2----------------|
D-------7----x---/9---------|-------/4-------2-------|---2----------------|
A---------------------------|------------------------|---0----------------|
E--5------------------------|------------------------|--------------------|





Verses (A maj - E Maj - F# Minor - D Maj)**********************************

A maj

E---------------------------|
B-------5----x---5--------x-|
G-------6----x---6--------x-|
D-------7----x---7--------x-|
A---------------------------|
E--5------------------------|

E maj

E---------------------------|
B-------0----x---0----------|
G-------1----x---1----------|
D-------2----x---2----------|
A---------------------------|
E--0------------------------|

F# Minor

E---------------------------|
B-------2----x---2--------x-|
G-------2----x---2--------x-|
D-------4----x---4--------x-|
A---------------------------|
E--2------------------------|

D maj                         (You play this rhythm of the D before Chorus)

E---------------------------|              |---------------------|
B-------3----x---3--------x-|              |-3--3--3---------3---|
G-------2----x---2--------x-|              |-2--2--2---------2---|
D-------4----x---4--------x-|              |-----------------4---|
A--5------------------------|              |------------5--------|
E---------------------------|              |---------------------|






Bridge*********************************************************************

Bm

E----------------------------|
B-------3----x---3---------x-|
G-------4----x---4---------x-|
D-------4----x---4---------x-|
A---2------------------------|
E----------------------------|

F# Minor

E---------------------------|
B-------2----x---2--------x-|
G-------2----x---2--------x-|
D-------4----x---4--------x-|
A---------------------------|
E--2------------------------|

A maj

E---------------------------|
B-------5----x---5--------x-|
G-------6----x---6--------x-|
D-------7----x---7--------x-|
A---------------------------|
E--5------------------------|

E maj

E---------------------------|
B-------0----x---0----------|
G-------1----x---1----------|
D-------2----x---2----------|
A---------------------------|
E--0------------------------|


*Then Repeat the Bm and F# but then play D maj for the remainder of the line and 
beginning a the Intro/chorus.




Enjoy,
~Ctnrox
Tap to rate this tab
 
# A B C D E F G H I J K L M N O P Q R S T U V W X Y Z