Song name
# A B C D E F G H I J K L M N O P Q R S T U V W X Y Z

Justin Bieber - Nothing Like Us tab

-------------------------------------------------------------------------------
                             Justin Bieber-Nothing Like us
------------------------------------------------------------------------------- Listen 
to the song to check the tune
Tabbed by: Dawid Zarnowski
E-mail:niezyn20@wp.pl

Tuning:Standard

e|----3p2-0-------5p2-3p2-0------------3p2-0------------------0--------------||
B|----3-----3-0-------3-----3------3---3----3-0-------------3----------------||
G|--------------0-------------2--2--2------------2/4-2----2------------------||
D|----------------------------0-0----------------0------0--------------------||
A|--------------------0----------------3------3------0-----------------------||
E|----0-------0--------------------------------------------------------------||


************************************

| /   slide up
| \   slide down
| h   hammer-on
| p   pull-off
| ~   vibrato
| +   harmonic
| x   Mute note
| b   Bend
| pb  Pre-bend
| br  Bend release
| pbr Pre-bend release
| brb Bend release bend

************************************
Tap to rate this tab
# A B C D E F G H I J K L M N O P Q R S T U V W X Y Z