Song name
# A B C D E F G H I J K L M N O P Q R S T U V W X Y Z

Justin Bieber - Boyfriend Acoustic tab

 e|--------------------------------------5-x---------5----------|
 b|---10-x--10-x------------------5-x-5--5-x--5------5---5------|
 G|---9--x--9--x--7-x-7----7/9----5-x-5-------5----------5------| 
 D|------x-----x----x-------------7-x-7-------7--5/7------------|
 A|---8--x--8--x--7-x-7--7--------------------------------------|
 E|-------------------------------------------------------------|


 e|--------------------------------------5-x---------5----------|
 b|---10-x--10-x------------------5-x-5--5-x--5------5---5------|
 G|---9--x--9--x--7-x-7----7/9----5-x-5-------5----------5------| 
 D|------x-----x----x-------------7-x-7-------7--5/7------------|
 A|---8--x--8--x--7-x-7--7--------------------------------------|
 E|-------------------------------------------------------------|

 e|------------------------------------------5-x---------5----------|
 b|---10-x--10--10/12-----------------5-x-5--5-x--5------5---5------|
 G|---9--x--9---------7-x-7----7/9----5-x-5-------5----------5------| 
 D|------x--------------x-------------7-x-7-------7--5/7------------|
 A|---8--x--8-8-------7-x-7--7--------------------------------------|
 E|-----------------------------------------------------------------|


 e|--------------------------------5-x----------------------------|
 b|---10-x------------------5-x-5--5-x-5--------------------------|
 G|---9--x--7----7/9--------5-x-5------5--------------------------| 
 D|------x------------------7-x-7------7--------------------------|
 A|---8--x--7--7--------------------------------------------------|
 E|---------------------------------------------------------------|


 e|-------------------------------------------------------------|
 b|---10-x------------------5-x-x-x-----------------------------|
 G|---9--x--7----7/9--------5-x-x-x-----------------------------| 
 D|------x------------------7-x-x-x-----------------------------|
 A|---8--x--7--7------------------------------------------------|
 E|-------------------------------------------------------------|

 e|--------------------------------5-x----------------------------|
 b|---10-x------------------5-x-5--5-x-5--------------------------|
 G|---9--x--7----7/9--------5-x-5------5--------------------------| 
 D|------x------------------7-x-7------7--------------------------| 
 A|---8--x--7--7--------------------------------------------------|
 E|---------------------------------------------------------------|
That is almost the whole song
Discuss if you want to upload the whole song!
Tap to rate this tab
# A B C D E F G H I J K L M N O P Q R S T U V W X Y Z