Song name
# A B C D E F G H I J K L M N O P Q R S T U V W X Y Z

Justin Bieber - Beauty And A Beat Acoustic tab

-------------------------------------------------------------------------------
                             Beauty And A Beat (acoustic) - Justin Bieber
-------------------------------------------------------------------------------
Tabbed by: LIanox95


Tuning: Standard

The chords in this song may be be kinda tricky for beginners,if it's the case for 
you,you can play this song using powerchords,it won't sound exactly like the acoustic version 
but it's still pretty accurate !

The chords in this song are :

    D#    Cm7   Gm   F   D#*   F*   A# or
e|----3----3----3----1----x----x----x----6----|
B|----4----4----3----1----8----10---3----6----|
G|----3----3----3----2----8----10---3----7----|
D|----5----5----5----3----8----10---3----8----|
A|----6----3----5----3----6----8----1----8----|
E|----x----x----3----1----x----x----x----6----|

Powerchord version :

D# --> x688xx
Cm7 --> x355xx
Gm --> 355xxx
F --> 133xxx or x8 10 10 xx
A# --> x133xx or 688xxx

The intro goes like :

D# Cm7 Gm F

I'm guessing there are two guitars in the recording,one strums the bottom strings,the 
other does a little picking pattern which goes like this : A D G D B G D G
If you're on your own just strum the bottom strings and quicky pick the B string and the 
G string,it will sound great,or you can try to do both at the same time it's possible !


Then the verse goes like this,strum quickly the bottom strings :

        D#
Show you off

Cm7                   Gm              F
Tonight I wanna show you off

        D#
What you got

Cm7                       Gm                       F
A billion could've never bought (aye,aye,aye)


(It's the same progression throughout the whole verse) Also,during this second part of 
the verse there's a little lead part which goes like this :
e|---------------------------------------------------------------------------------|
B|----------------6--------6-------------------------------------------------------|
G|--7-----7------------------------------------------------------------------------|
D|-----8------8-------8--------8---------------------------------------------------|
A|---------------------------------------------------------------------------------|
E|---------------------------------------------------------------------------------|
We gonna party like it's 3012 tonight
I wanna show you all the finer things in life
So just forget about the world, we're young tonight
I'm coming for ya, I'm coming for ya

The chorus goes like :
(During the first part of the chorus,strum the chords once and do the same picking 
pattern we used in the beginning)

       D# *         F *
Cause all..
      Gm                                  A#    D# *
I need, is a Beauty and a Beat

        F *                    Gm            A#
Who can make my life complete

(In the second part of the chorus,strum the bottom strings quickly)
Also the lead part in the verse comes back during this part of the chorus:
e|---------------------------------------------------------------------------------|
B|----------------6--------6-------------------------------------------------------|
G|--7-----7------------------------------------------------------------------------|
D|-----8------8-------8--------8---------------------------------------------------|
A|---------------------------------------------------------------------------------|
E|---------------------------------------------------------------------------------|

D# *        F *
It's all..
Gm               A#                                    D# *
Bout you, when the music makes you move
F *               Gm           A#
Baby do it like you do

Cause..

Then the beat break goes like :
e|---x---x---x---x---x-----x----x-----x----x----x----x----x----------------------------|
B|---x---x---x---x---x-----x----x-----x----x----x----x----x----------------------------|
G|---x---x---x---x---x-----x----7-----x----x----x----x----x----------------------------|
D|---5---5---5---5---5-----8----7-----5----5----5----5----5----------------------------|
A|---5---5---5---5---5-----8----5-----5----5----5----5----5----------------------------|
E|---3---3---3---3---3-----6----x-----3----3----3----3----3----------------------------|

The little solo (I don't know if it's really how the guitarist does it,you don't have to 
pull off,you can just pick the notes) :
e|--------------------------------------------------------------------------------|
B|--------------------------------------------------------------------------------|
G|---5p3--------------------------------------------------------------------------|
D|--------5p3---------------------------------------------------------------------|
A|----------------5---------------------------------------------------------------|
E|--------------------------------------------------------------------------------|

e|---x---x---x---x---x-----x----x-----x----x----x----x----x----------------------------|
B|---x---x---x---x---x-----x----x-----x----x----x----x----x----------------------------|
G|---x---x---x---x---x-----x----7-----x----x----x----x----x----------------------------|
D|---5---5---5---5---5-----8----7-----5----5----5----5----5----------------------------|
A|---5---5---5---5---5-----8----5-----5----5----5----5----5----------------------------|
E|---3---3---3---3---3-----6----x-----3----3----3----3----3----------------------------|

The rest of the song is pretty much the same thing !

Body rock,
Girl, I can feel your body rock (aye,aye,aye)
Take a bow, you on the hottest ticket now (aye,aye,aye)

We gonna party like it's 3012 tonight
I wanna show you all the finer things in life
So just forget about the world, we're young tonight
I'm coming for ya, I'm coming for ya

Cause all..
I need, is a Beauty and a Beat
Who can make my life complete
It's all..
Bout you, when the music makes you move
Baby do it like you do

************************************

| /   slide up
| \   slide down
| h   hammer-on
| p   pull-off
| ~   vibrato
| +   harmonic
| x   Mute note
| b   Bend
| pb  Pre-bend
| br  Bend release
| pbr Pre-bend release
| brb Bend release bend

************************************

I hope this was accurate ! Please rate and tell me if you spot any mistake !
Tap to rate this tab
# A B C D E F G H I J K L M N O P Q R S T U V W X Y Z