Song name
# A B C D E F G H I J K L M N O P Q R S T U V W X Y Z

Justin Bieber - Heartbreaker tab

-------------------------------------------------------------------------------
                             Heartbreaker - Justin Bieber
-------------------------------------------------------------------------------

Tabbed by: ecnarret95 

Tuning: Standard

These chords are played throughout the song:

                                  Played at the end
 Dmaj7 Amaj7 C#7b9  F#m7  Em7     Bm            F#m 
e|-5-----x-----x-----x-----x-----|-2-------------2-----------------|
B|-7-----5-----3-----2-----3-----|-3-------------2-----------------|
G|-6-----6-----4-----2-----0-----|-4-------------2-----------------|
D|-7-----6-----3-----2-----2-----|-4-------------4-----------------|
A|-5-----x-----4-----x-----x-----|-2-------------4-----------------|
E|-x-----5-----x-----2-----0-----|-x-------------2-----------------|
                                  (I still...)   (...believe in us...) etc.


  Dmaj7                Amaj7
e|--------------------------------------------------|
B|----7--x--7-----7-------5--x--5-----5-------------|
G|----6--x--6-----6-------6--x--6-----6-------------|
D|----7--x--7-----7-------6--x--6-----6-------------|
A|-5-----x--5--5------------------------------------|
E|---------------------5-----x--5--5----------------|
            (Girl you don't....) 

  C#7b9                F#m7     Em7
e|--------------------------------------------------|
B|----3--x--3-----3-------2--x--3--3--x-------------|
G|----4--x--4-----4-------2--x--0--0--x-------------|
D|----3--x--3-----3-------2--x--2--2--x-------------|
A|-4-----x--4--4------------------------------------|
E|---------------------2-----x--0--0--x-------------|


Lyrics:
Girl you donít know how I feel (how I really feel)
Since youíve been away, oh baby
Any chance that you could take my call (take my call)
If I called you today, oh?

Girl you say that you donít wanna talk but itís cool
Iíve been thinking 'bout you all day long
Hoping youíll pick up your phone
Girl I know that I donít wanna lose your love
Oh baby (oh baby), oh baby

Oh girl I got a secret place that we can go
'Cause I really wanna be alone
Baby nobody else gotta know
Just meet me later on the low

Donít tell me you're my heartbreaker
'Cause girl my heart's breaking
Donít tell me you're my heartbreaker
'Cause girl my heart's breaking

(Hey girl)

Girl you see me standing here (standing here)
Standing in the rain
Oh, baby
Any chance that you could stay right here?
And never go away?

Girl you say that you donít wanna talk but itís cool
Iíve been thinking 'bout you all day long
Hoping youíll pick up your phone
Girl I know that I donít wanna lose your love
Oh baby (oh baby), oh baby

Oh girl I got a secret place that we can go (secret place that we can go)
'Cause I really wanna be alone (I really wanna be alone)
And baby nobody else gotta know (nobody else)
Just meet me later on the low (would you meet me on the low girl)

Donít tell me you're my heartbreaker (baby don't tell me, no)
Girl my heart's breaking
Donít tell me you're my heartbreaker
'Cause girl my heart's breaking (heart is breaking, woah)

So what Iím really tryna say is
And what I hope you understand
Is despite of all the imperfections of who I am
I still wanna be your man
I know it hasnít been easy for us to talk with everyone being around
But this is personal, this is for me and you
And I want you to know that I still love you
I know the seasons may change
But sometimes love goes from sunshine to rain
And Iím under this umbrella and Iím calling your name
And you know I donít wanna lose that
I still believe in us

I still believe in love
I still believe in us
I hope you believe in us
The way I believe in us
You donít see
'Cause what you donít see is when we donít speak I really donít sleep I wanna talk to ya
And if I had the world in my hands Iíd give it all to ya
I wanna know if youíre feeling the way that Iím feeling
I wanna know if youíre feeling the way that I, the way that I
You told me to be careful with your heart, your heart
You told me to be careful with your heart, your heart
With your heart

| /  slide up
| \  slide down
| h  hammer-on
| p  pull-off
| ~  vibrato
| +  harmonic
| x  Mute note
Tap to rate this tab
# A B C D E F G H I J K L M N O P Q R S T U V W X Y Z