Song name
# A B C D E F G H I J K L M N O P Q R S T U V W X Y Z

Justin Bieber - Bad Day chords

Highlighted       Show chord diagrams
Chords used:

Capo 2nd fret

e|--5-------|
B|--5-------|
G|--5-------|
D|--7-------|
A|--7-------|
E|--5-------|
    Am

e|--X-------|
B|--8-------|
G|--9-------|
D|--9-------|
A|--7-------|
E|--7-------|
    Em

But if you want to play exactly like the song goes you have to add also two sounds on 
the high e string. It looks like this:

e|--5---7----|
B|--5---5----|
G|--5---5----|
D|--7---7----|
A|--7---7----|
E|--5---5----|
     Am

e|--X---X----|
B|--8---10---|
G|--9---9----|
D|--9---9----|
A|--7---7----|
E|--7---7----|
    Em
Tap to rate this tab
 
# A B C D E F G H I J K L M N O P Q R S T U V W X Y Z