Song name
# A B C D E F G H I J K L M N O P Q R S T U V W X Y Z

Justin Bieber - All That Matters tab

-------------------------------------------------------------------------------
                           All That Matters - Justin Bieber
-------------------------------------------------------------------------------

Tuning: standard

Key:

b = bend
h = hammer on
\ = slide down
/ = slide town

This is the main guitar riff throughout the whole song.

e|--9-9-----------------------4--9-------------------------4/7--7/9-----------|
B|--9-9-------------- 4-4--5h-5--9------------12-12--------4/7--7/9-----------|
G|--9-9---6b-----6----5-5--4--4--9--5\6b--6---11-11---------------------------|
D|--9-9---6b-----6----4-4--6--6--9--5\6b--6---10-10---------------------------|
A|--------0----- 0----6-6--4--4-----0-----0---11-11--9h 11--------------------|
E|----------------------------------------------------------------------------|
Tap to rate this tab
 
# A B C D E F G H I J K L M N O P Q R S T U V W X Y Z