Song name
# A B C D E F G H I J K L M N O P Q R S T U V W X Y Z

Justin Bieber - Baby tab

-------------------------------------------------------------------------------
                             Baby - Justin Bieber
-------------------------------------------------------------------------------
Tabbed by:Dat0Weird0Guy
E-mail:marcusfuller23@gmail.com

Tuning:Standard

e|---------------------------------------------------------------------|
B|--11----13-11-----8----9-8-----4----6-4-----6----8-6-------------6---|
G|--12----12-12-----8----8-8-----5----5-5-----7----7-7---7~------7-----|
D|-------------------------------------------------------8~----8-------|
A|---------------------------------------------------------------------|
E|---------------------------------------------------------------------|

Can also be played:

e|--6----8-6-----3----4-3------------------1----3-1------------1-------|
B|--8----8-8-----4----4-4-----4----6-4-----3----3-3---3~-----3---------|
G|----------------------------5----5-5----------------3~---3-----------|
D|---------------------------------------------------------------------|
A|---------------------------------------------------------------------|
E|---------------------------------------------------------------------|

Just play this throughout the song.

If you have any request or corrections email me :)
Tap to rate this tab
 
# A B C D E F G H I J K L M N O P Q R S T U V W X Y Z