Song name
# A B C D E F G H I J K L M N O P Q R S T U V W X Y Z

Justin Hawkins - You Cant Hurt Me Anymore tab

hey guys this is my first tab on "you can't hurt me anymore" by justin hawkins formerly 
the darkness, the song hasn't even been released yet but it used to be on justins 
page and i learned it by ear so i won't be surprised if it's not right but it sounds alright.

x=mute

Verse:
E|------------------------------------x|
B|---------------------------3x----3--x|
G|---------22x------22-------2x----2--x|     Do that 6 times
D|-2x----5-22x----5-22---0---0x-2x-0-2x|
A|-2x----5-00x----5-00-----0----2x---2x|
E|-0x----3--------3----3--------0x---0x|

Then it has some techno bullshit i dont know i just do this

Techno b/s part:
E|-------------------------------|
B|-------------------------------|
G|-------------------------------|
D|------------------------000000-|
A|000000000000000000000000-------|
E|-------------------------------|

Chorus:
E|---------------------|
B|---------------------|
G|------------7777-----|
D|-222-777777-7777-777-|   Do that 3 times then to end the chorus
A|-222-777777-5555-777-|
E|-000-555555------555-|

E|-------------------------|
B|-------------------------|
G|-------------------------|
D|-222-7777-2--Let it ring-|
A|-222-7777-2--Let it ring-|
E|-000-5555-0--Let it ring-|

Verse:
E|------------------------------------x|
B|---------------------------3x----3--x|
G|---------22x------22-------2x----2--x|     Do that twice this time
D|-2x----5-22x----5-22---0---0x-2x-0-2x|
A|-2x----5-00x----5-00-----0----2x---2x|
E|-0x----3--------3----3--------0x---0x|

Techno b/s part:
E|-------------------------------|
B|-------------------------------|
G|-------------------------------|
D|------------------------000000-|
A|000000000000000000000000-------|
E|-------------------------------|

Chorus:
E|---------------------|
B|---------------------|
G|------------7777-----|
D|-222-777777-7777-777-|   Do that 3 times then to end the chorus
A|-222-777777-5555-777-|
E|-000-555555------555-|

E|-------------------------|
B|-------------------------|
G|-------------------------|
D|-222-7777-2--Let it ring-|
A|-222-7777-2--Let it ring-|
E|-000-5555-0--Let it ring-|

Verse:
E|------------------------------------x|
B|---------------------------3x----3--x|
G|---------22x------22-------2x----2--x|     Do that twice (solo goes over
D|-2x----5-22x----5-22---0---0x-2x-0-2x|     top, but I havn't figured that
A|-2x----5-00x----5-00-----0----2x---2x|     out)
E|-0x----3--------3----3--------0x---0x|

Techno b/s part:
E|-------------------------------|
B|-------------------------------|
G|-------------------------------|
D|------------------------000000-|      Played twice this time while solo is
A|000000000000000000000000-------|      still going.
E|-------------------------------|

Chorus:
E|---------------------|
B|---------------------|
G|------------7777-----|
D|-222-777777-7777-777-|   Do that 3 times then..
A|-222-777777-5555-777-|
E|-000-555555------555-|

E|-------------------------|
B|-------------------------|
G|-------------------------|     Then after that do the chorus again
D|-222-7777-2--Let it ring-|
A|-222-7777-2--Let it ring-|
E|-000-5555-0--Let it ring-|

Chorus:
E|---------------------|
B|---------------------|
G|------------7777-----|
D|-222-777777-7777-777-|   Do that 3 times then end on
A|-222-777777-5555-777-|
E|-000-555555------555-|

E|-------------------|
B|-------------------|
G|-------------------|
D|-222-7777-2x-----2x|
A|-222-7777-2x-----2x|
E|-000-5555-0x-----0x|

Alright I think that's just about it thanks for checkin it out I hope it works for you 
queries email me lozza985@hotmail.com
Tap to rate this tab
# A B C D E F G H I J K L M N O P Q R S T U V W X Y Z