Song name
# A B C D E F G H I J K L M N O P Q R S T U V W X Y Z

Justin Hines - Wish You Well tab

This version is different from my GP5 version, but I like this one more.  So Don't
even bother with my GP5 version, use this one.  I'm still open for feedback on this too! =)


Tuning is in Drop D

              Wish You Well
               Justin Hines
Lead (Capo 1)

     Q    Q    Q    Q
E||----------------------|
B||-----------------1----|
G||-------0--------------|
D||------------2---------|
A||--3-------------------|
D||----------------------|


  Q    Q    Q    Q
----------------------|
-----------------1----|
-------0--------------|
------------2---------|
--3-------------------|
----------------------|


  Q    Q    Q    Q
----------------------|
-----------------1----|
-------0--------------|
------------3---------|
----------------------|
--0-------------------|


  Q    Q    Q    Q
----------------------|
-----------------1----|
-------0--------------|
------------3---------|
----------------------|
--0-------------------|


  Q    Q    Q    Q
----------------------|
-----------------1----|
-------0--------------|
------------2---------|
--3-------------------|
----------------------|


  Q    Q    Q    Q
----------------------|
-----------------1----|
-------0--------------|
------------2---------|
--3-------------------|
----------------------|


  Q    Q    Q    Q
----------------------|
-----------------1----|
-------0--------------|
------------2---------|
--0-------------------|
----------------------|


  Q    Q    Q    Q
----------------------|
------------0----1----|
----------------------|
-------0--------------|
----------------------|
--5-------------------|


  Q    Q    Q    Q
----------------------|
-----------------1----|
-------0--------------|
------------2---------|
--3-------------------|
----------------------|


  Q    Q    Q    Q
----------------------|
-----------------1----|
-------0--------------|
------------2---------|
--3-------------------|
----------------------|


  Q    Q    Q    Q
----------------------|
-----------------1----|
-------0--------------|
------------3---------|
----------------------|
--0-------------------|


  Q    Q    Q    Q
----------------------|
-----------------1----|
-------0--------------|
------------3---------|
----------------------|
--0-------------------|


  Q    Q    Q    Q
----------------------|
-----------------1----|
-------0--------------|
------------2---------|
--3-------------------|
----------------------|


  Q    Q    Q    Q
----------------------|
-----------------1----|
-------0--------------|
------------2---------|
--3-------------------|
----------------------|


  Q    Q    Q    Q
----------------------|
-----------------1----|
-------0--------------|
------------2---------|
--0-------------------|
----------------------|


  Q    Q    Q    Q
----------------------||
------------0----1----||
----------------------||
-------0--------------||
----------------------||
--5-------------------||


Duration Legend
---------------
W - whole
H - half
Q - quarter
E - 8th
S - 16th
T - 32nd
X - 64th
. - note dotted
|-n-|  - n-tuplets


Tablature Legend
----------------
L - tied note
x - dead note
g - grace note
(n) - ghost note
> - accentuded note
NH - natural harmonic
AH - artificial harmonic
TH - tapped harmonic
SH - semi harmonic
PH - pitch harmonic
h - hammer on
p - pull off
b - bend
br - bendRelease
pb - preBend
pbr - preBendRelease
brb - bendReleaseBend
\n/ - tremolo bar dip
\n - tremolo bar dive
-/n - tremolo bar Release up
/n\ - tremolo bar inverted dip
/n - tremolo bar return
-\n - tremolo bar Release down
S - shift slide
s - legato slide
/ -  slide into from below or out of upwards
\ -  slide into from above or out of downwards
~ - vibrato
W - wide vibrato
tr - trill
TP - tremolo picking
T - tapping
S - slap
P - pop
< - fade in
^ - brush up
v - brush down
Tap to rate this tab
# A B C D E F G H I J K L M N O P Q R S T U V W X Y Z