Song name
# A B C D E F G H I J K L M N O P Q R S T U V W X Y Z

Justin King - Beauty Bar tab

Beauty Bar - Justin King

from the album: le bleu

Tuning: DADGAD


its pretty straight forward.  

Verse:

    A       F#m     B 

D|--0-------0-------0-------|
A|--0-------0-------0-------|
G|--x-------x-------x-------|
D|--9h11p9--9h11p9--9h11p9--|
A|--0-------9-------9-------|
D|------------------9-------|

Pre-Chorus:

    F#m    G

D|--0------0--|
A|--0------0--|
G|--x------0--|
D|--11-----11-|
A|--9------10-|
D|--x------x--|
    
Chorus:

    A      Em    G    F#m

D|--0------0-----0----0-----|
A|--0------0-----0----0-----|
G|--6------4-----7----6-----|
D|--7------5-----7----7-----|
A|--0------2-----5----4-----|
D|--x------2-----5----4-----|


Tap to rate this tab
# A B C D E F G H I J K L M N O P Q R S T U V W X Y Z