Song name
# A B C D E F G H I J K L M N O P Q R S T U V W X Y Z

Justin Moore - Small Town Usa tab

-------------------------------------------------------------------------------
                             Small Town USA (Intro)-Justin Moore


Tuning: Tune down  step


eb|-------3-------------------------------3----------------------------------|
Bb|----------3-----------3-------------------1------------3------------------|
Gb|------------0----0------0---0----------------0-----------0----0-----------|
Db|-2/4-----------4---4------4-------2------------2/4--4------4--------------|
Ab|--------------------------------------------------------------------------|
Eb|--------------------------------------------------------------------------|



eb|-------3---------------------------3---3---3------------------------------|
Bb|----------3-----------3------------3---3---3------------------------------|
Gb|------------0----0------0---0------0---0---0------------------------------|
Db|-2/4-----------4---4------4--------2---0---2------------------------------|
Ab|-----------------------------------3---2---3------------------------------|
Eb|---------------------------------------3----------------------------------|
Tap to rate this tab
 
# A B C D E F G H I J K L M N O P Q R S T U V W X Y Z