Song name
# A B C D E F G H I J K L M N O P Q R S T U V W X Y Z

Justin Moore - Point At You tab

Justin Moore - Point At You

E|--------------------------------------------------|
B|--8--8--8--8--8--8--8--8--8--8--8--8--8--8--8--8--|
G|--5--5--5--5--5--5--5--5--7--7--7--7--7--7--7--7--| x2
D|--------------------------------------------------|
A|--------------------------------------------------|
E|--------------------------------------------------|


E|----------------------------------------------------------------------------|
B|----------1/3--3-5----------1--1-1/3----------1/3--3-5----------------------|
G|-5\2p0-------------2p0---------------2p0---------------2p0----2-2p0-2/4-2p0-|
D|-----------------------2p0--------------------------------------------------|
A|----------------------------------------------------------------------------|
E|----------------------------------------------------------------------------|
Tap to rate this tab
# A B C D E F G H I J K L M N O P Q R S T U V W X Y Z