Song name
# A B C D E F G H I J K L M N O P Q R S T U V W X Y Z

Justin Nozuka - Dont Listen To A Word Youve Heard tab

Hey guys!
Wanted to say that I didn't find this tab so I decided to do it and I'm proud to say 
this is my first one!
This is the live version of the song. If someone wants the album version, just ask or 
to do it yourself, it's fun!

e-mail: euplusrock@hotmail.com
Thx for learning :)

Sāmia Bianchi AKA SamiRockQueen
August 25th 2008
---------------------------------------------

[Intro]  3x
E:------2----------------|
B:-----0---0--0----------|
G:----2---2--------------|
D:-----------0-----------|
A:--2--------------------|
E:-----------------------|

1x
E:------2---2------------|
B:-----0-----0-----------|
G:----2---2---2----------|
D:-----------------------|
A:--2--------------------|
E:-----------------------|

"I've been a fool..." 3x
E:------2----------------|------2----------------|
B:-----0---0--0----------|-----0---0--0----------|
G:----2---2--------------|----2---2--------------|
D:-----------0-----------|-----------0-----------|
A:--2--------------------|--2--------------------|
E:-----------------------|-----------------------|

E:------0---0------------|------0---0------------|
B:-----0-----0-----------|-----0-----0-----------|
G:----2---2---2----------|----2---2---2----------|
D:-----------------------|-----------------------|
A:--0--------------------|--0--------------------|
E:-----------------------|-----------------------|

"Don't listen to a word..." 1x
E:------2----------------|------2----------------|
B:-----0---0--0----------|-----0---0--0----------|
G:----2---2--------------|----2---2--------------|
D:-----------0-----------|-----------0-----------|
A:--2--------------------|--2--------------------|
E:-----------------------|-----------------------|
                         (keep playing like intro)
E:------2---2------------|------2----------------|
B:-----0---0-------------|-----0---0--0----------|
G:----2---2--------------|----2---2--------------|
D:---2---0---------------|-----------0-----------|
A:-----------------------|--2--------------------|
E:-----------------------|-----------------------|

"This world is full of strangers..." 4x
E:------2----------------|------2----------------|
B:-----0---0--0----------|-----0---0--0----------|
G:----2---2--------------|----2---2--------------|
D:-----------0-----------|-----------0-----------|
A:--2--------------------|--2--------------------|
E:-----------------------|-----------------------|

E:------0---0------------|------0---0------------|
B:-----0-----0-----------|-----0-----0-----------|
G:----2---2---2----------|----2---2---2----------|
D:-----------------------|-----------------------|
A:--0--------------------|--0--------------------|
E:-----------------------|-----------------------|

[Chorus]
"Don't listen to a word..." 4x
E:------2---2------------|------2---2------------|
B:-----0---0-------------|-----0-----0-----------|
G:----2---2--------------|----2---2---2----------|
D:---2---0---------------|-----------------------|
A:-----------------------|--2--------------------|
E:-----------------------|-----------------------|

"...you've...heard...." 2x
E:------2----------------|------2----------------|
B:-----0---0--0----------|-----0---0--0----------|
G:----2---2--------------|----2---2--------------|
D:-----------0-----------|-----------0-----------|
A:--2--------------------|--2--------------------|
E:-----------------------|-----------------------|

E:------7--7-------------|
B:-----------------------|
G:------7--7-------------|
D:-----------------------|
A:------7--7-------------|
E:-----------------------|

"The flag waves..." 4x
E:------2----------------|------2----------------|
B:-----0---0--0----------|-----0---0--0----------|
G:----2---2--------------|----2---2--------------|
D:-----------0-----------|-----------0-----------|
A:--2--------------------|--2--------------------|
E:-----------------------|-----------------------|

E:------0---0------------|------0---0------------|
B:-----0-----0-----------|-----0-----0-----------|
G:----2---2---2----------|----2---2---2----------|
D:-----------------------|-----------------------|
A:--0--------------------|--0--------------------|
E:-----------------------|-----------------------|

[Chorus]
"Don't listen to a word..." 4x
E:------2---2------------|------2---2------------|
B:-----0---0-------------|-----0-----0-----------|
G:----2---2--------------|----2---2---2----------|
D:---2---0---------------|-----------------------|
A:-----------------------|--2--------------------|
E:-----------------------|-----------------------|

4x
E:------2----------------|------2----------------|
B:-----0---0--0----------|-----0---0--0----------|
G:----2---2--------------|----2---2--------------|
D:-----------0-----------|-----------0-----------|
A:--2--------------------|--2--------------------|
E:-----------------------|-----------------------|

1x
E:------2---2------------|------2----------------|
B:-----0---0-------------|-----0-----------------|
G:----2---2--------------|----2------------------|
D:---2---0---------------|-----------------------|
A:-----------------------|--2--------------------|
E:-----------------------|-----------------------|
Tap to rate this tab
 
# A B C D E F G H I J K L M N O P Q R S T U V W X Y Z