Song name
# A B C D E F G H I J K L M N O P Q R S T U V W X Y Z

Justin Nozuka - Heartless chords

Highlighted       Show chord diagrams
I saw this tabbed before, and this is based off someone else's. Some of the chords 
were off and I really like this song. Tabbed by ear, probably 99% right. Enjoy.

Intro/Verse
e |--------------x-------------x--| x3 	
B |------7-------x-------2-----x--|
G |------7-------x-------2-----x--|
D |--------------x-------------x--|
A |--------------x-------------x--|
E |------7-------x-------2-----x--| Fingerpicked
                 ^Slap         ^Slap
Then 1x
             E
e |-----0-------| 
B |-----0-------|
G |-----1-------|
D |-----2-------|
A |-----2-------|
E |-------------| Strummed

Repeated for all intro/verse.

The Bm is played barred. You can play the A barred or just a regular A for the chorus.

Chorus
E                       Bm            A
I'll never leave You Heartless 

       E
Heartless
                                  Bm	           A
Never leave You standing in the darkness 

           E
The darkness
               Bm           A	
Darling oh I Promise 

       E
I Promise
                     Bm           A
I'll never leave You Heartless

         E
Heartless

2nd Verse
e |--------------x-------------x--| x3 	
B |------7-------x-------2-----x--|
G |------7-------x-------2-----x--|
D |--------------x-------------x--|
A |--------------x-------------x--|
E |------7-------x-------2-----x--| Fingerpicked
                 ^Slap         ^Slap
Then 1x
             E
e |-----0-------| 
B |-----0-------|
G |-----1-------|
D |-----2-------|
A |-----2-------|
E |-------------| Strummed

Another Chorus.

Bridge - The A2 and A3 chords are below. G and F are Barre.

A2*						                A3*    G
Oh no I'm never gonna ever let You down down down
A2*						                A3	    G	      F
I'm never gonna ever gonna let You down down down 
A3       G           F            
Down down down
 
Chorus x3

Fin.

             A2*
e |-----x-------| 
B |-----0-------|
G |-----0-------|
D |-----5-------|
A |-----5-------|
E |-----5-------| 
  
             A3*
e |-----x-------| 
B |-----0-------|
G |-----5-------|
D |-----5-------|
A |-----5-------|
E |-----0-------|
Tap to rate this tab
# A B C D E F G H I J K L M N O P Q R S T U V W X Y Z