Song name
# A B C D E F G H I J K L M N O P Q R S T U V W X Y Z

Justin Nozuka - Love tab

Amazing song by JN. There were no tabs so I decided to give it a try. I believe 
that they are 99.9% accurate. Give it a go. Any suggestions let me know. Enjoy!

Artist: Justin Nozuka
Song: Love
Album: You I Wind Land and Sea
Tuning: Standard (Studio Version)
	Half-Step Down (Live)

Intro  

e |-------------4--------5-----|
B |----8--------5--------5-----|
G |----8--------6--------6-----| (x2)
D |----6--------6--------7-----|
A |----7--------4--------7-----| 	
E |----x--------x--------5-----|

Verse 1 

e |-------------4--------5-----|
B |----8--------5--------5-----|
G |----8--------6--------6-----| (x2)
D |----6--------6--------7-----|
A |----7--------4--------7-----| 	
E |----x--------x--------5-----|

Swimming in this moment
Guided by your sound
The Current strong and rolling
And there isn't any doubt

Chorus 

e |----0--------3--------5-----|
B |----0--------3--------5-----|
G |----1--------4--------6-----| (x4) 
D |----2--------5--------7-----|
A |----2--------5--------7-----| 	
E |----0--------3--------5-----|

I think I'm in Love
I feel like my Heart's exploding
And over the Sun
A million Lions roaring
And on My way to reach the Gate, You take my
Hand and pull me in again

Interlude

e |-------------------------|
B |----8--------8-----------|
G |----8--------6-----------| (x2)
D |----6--------8-----------|
A |----7--------7-----------| 	
E |----x--------x-----------|

Love....

Verse 2 

e |-------------4--------5-----|
B |----8--------5--------5-----|
G |----8--------6--------6-----| (x2)
D |----6--------6--------7-----|
A |----7--------4--------7-----| 	
E |----x--------x--------5-----|

On the Land, the Seasons
Combine to make a new
Where the Air is full Emotion
And every Breath I'm taking in, I feel You now, I feel You

Chorus (x2)

Bridge

e |----x--------3--------5-----|
B |----4--------3--------5-----|
G |----4--------4--------6-----| (x2)
D |----4--------5--------7-----|
A |----2--------5--------7-----| 	
E |----2--------3--------5-----|

On higher miles away
On higher miles away

e |----x-------------|
B |----4-------------|
G |----4-------------| (x8)
D |----4-------------|
A |----2-------------| 	
E |----2-------------|

Oh I want to...

Interlude

e |-------------------------|
B |----8--------8-----------|
G |----8--------6-----------| (x2)
D |----6--------8-----------|
A |----7--------7-----------| 	
E |----x--------x-----------|

stay...yeah

Chorus (x2) 

Interlude

e |-------------------------|
B |----8--------8-----------|
G |----8--------6-----------| (x8)
D |----6--------8-----------|
A |----7--------7-----------| 	
E |----x--------x-----------|

Love...


Tap to rate this tab
 
# A B C D E F G H I J K L M N O P Q R S T U V W X Y Z