Song name
# A B C D E F G H I J K L M N O P Q R S T U V W X Y Z

Justin Nozuka - Heartless tab

I haven't seen a tab for this remarkable song. So here it is. Give it a go. Improv. with
it if you want. In the verses and interludes JN plucks the chords. For the E chord he
plucks strings E,G, & B. For the chorus and the bridge he strums the chords. It's 99.9% 
accurate! Enjoy!

Artist: Justin Nozuka
Song: Heartless
Album: You I Wind Land and Sea
Tuning: Standard (Studio Version)
	Half-Step Down (Live)

Intro (x2)

e |-----------------------|
B |----7--------2---------|
G |----7--------2---------| (x3)
D |-----------------------|
A |----x--------x---------|
E |----7--------2---------|

e |----0----------------|
B |----0----------------|
G |----1----------------|
D |----2----------------|
A |----2----------------|
E |----0----------------|


Verse 1 (x2)

e |----------------------|
B |----7-------2---------|
G |----7-------2---------|(x3)
D |----------------------|
A |----x-------x---------|
E |----7-------2---------|

e |----0----------------|
B |----0----------------|
G |----1----------------|
D |----2----------------|
A |----2----------------|
E |----0----------------|


Promise not to leave her, Said I'd never disappear
She knows I'll come back some day
Crying in the bathroom as the mirror disappears
Holding onto faded moments


Pre-Chorus (x2)

e |----------------------|
B |----7-------2---------|
G |----7-------2---------|
D |----------------------| (x3)
A |----x-------x---------|
E |----7-------2---------|

e |----0----------------|
B |----0----------------|
G |----1----------------|
D |----2----------------|
A |----2----------------|
E |----0----------------|


Momma- I think I did it again
I got lost in the Wind again
Momma- I think I did it again
I got lost in the Wind again

Chorus

e |----2------0-------0----|
B |----3------0-------0----|
G |----4------2-------1----| (x4)
D |----4------2-------2----|
A |----2------0-------2----|
E |----2------0-------0----|

I'll never leave You Heartless (Heartless)
Never leave You standing in the Darkness (The Darkness)
Darling, Oh I Promise (Oh I promise)
I'll never leave You Heartless (Heartless)

Interlude

e |-----------------------|
B |----7--------2---------|
G |----7--------2---------| (x3)
D |-----------------------|
A |----x--------x---------|
E |----7--------2---------|

e |----0----------------|
B |----0----------------|
G |----1----------------|
D |----2----------------|
A |----2----------------|
E |----0----------------|

Verse 2 (x2)

e |----------------------|
B |----7-------2---------|
G |----7-------2---------| (x3)
D |----------------------|
A |----x-------x---------|
E |----7-------2---------|

e |----0----------------|
B |----0----------------|
G |----1----------------|
D |----2----------------|
A |----2----------------|
E |----0----------------|


Never gonna leave me,
Said she'd always be right here
Even when she's farthest away
Underneath your worry, the reason's always clear
Hold onto this very moment

Pre-chorus (x2)

e |----------------------|
B |----7-------2---------|
G |----7-------2---------| (x3)
D |----------------------|
A |----x-------x---------|
E |----7-------2---------|

Momma- I think I did it again-
I got lost in the Wind again
Momma- I think I did it again-
I got lost in the Wind again

Chorus

Bridge

e |----0------0-------3-----|
B |----5------0-------4-----|
G |----5------5-------5-----| (x2)
D |----0------5-------5-----|
A |----x------x-------3-----|
E |----5------5-------3-----|

e |----1-----------|
B |----1-----------|
G |----2-----------|
D |----3-----------|
A |----3-----------|
E |----1-----------|


Oh You know I'll never gonna let You down (down x2)
Oh You know I'll never gonna let You down (down x2)

e |----0------3------1------0----|
B |----0------4------1------0----|
G |----5------5------2------1----|
D |----5------5------3------2----|
A |----x------3------3------2----|
E |----5------3------1------0----|

Ohhh (down x2)

Chorus (x5)
Tap to rate this tab
 
# A B C D E F G H I J K L M N O P Q R S T U V W X Y Z