Song name
# A B C D E F G H I J K L M N O P Q R S T U V W X Y Z

Justin Nozuka - Gray tab

Artist: Justin Nozuka
Song: Gray
Album: You Wind I Land and Sea
Tuning: Standard

Reference Video:  http://www.youtube.com/watch?v=pjNC1mKIpQA&feature=related

Intro 

e |------------------------|
B |------------------------|
G |---2------4-----v9------|
D |------------------------|
A |------------------------| 	
E |-0------0-----0---------|

Verse 1

e |--------------------------|
B |--------------------------|
G |---2-----4/----6/-----13--|
D |--------------------------|
A |--------------------------| 	
E |-0----0-----0-----0-------|


e |-------------------------------------|
B |-------------------------------------|
G |-----9\-------7\----5---4----2----1--|
D |-------------------------------------|
A |-------------------------------------| 	
E |---0-----0-----0----0----0-----0-----|

Stars of gray 
Come take my soul away 
I've lost my way 
Come take my soul away 
My soul away 

Mountain of gray 
Come take my soul away 
I've lost my way 
Come take my soul away 
My soul away 

Chorus


Oh oh oh sun 
Oh oh oh sun 
Oh oh oh sun 


e |---------------------|
B |---------------------|
G |--4----2----1--------|
D |---------------------|
A |---------------------| 	
E |---------------------|

My soul away 
My soul away 


e |-0---3----5----0---------|
B |-0---3----5----0---------|
G |-1---4----6----1---------|
D |-2---5----7----2---------|
A |-2---5----7----2---------| 	
E |-0---3----5----0---------|

Now take me 
Now take me 
My soul away 
Take me please 
My soul away 


e |---3----5---8----10------|
B |---3----5---8----10------|
G |---4----6---9----11------|
D |---5----7---10---12------|
A |---5----7---10---12------| 	
E |---3----5---8----10------|

Take me 
Take me 
Cause I dont want to lose you 
I dont want to lose you 

End...

e |-0---------|
B |-0---------|
G |-1---------|
D |-2---------|
A |-2---------| 	
E |-0---------|


Tap to rate this tab
 
# A B C D E F G H I J K L M N O P Q R S T U V W X Y Z