Song name
# A B C D E F G H I J K L M N O P Q R S T U V W X Y Z

Justin Nozuka - Save Him tab

Save Him – Justin Nozuka
Standard tuning: (EADGBE)
Tabbed By Jordan Martinez

Pretty Simple song to play. Didn't see any tabs for this song out there so i decided to 
it out and make post it. Listen to the song to figure out the rhythm and what not.  Any 
just let me know at Jordan_Martinez@hotmail.com.

x - Tap

Intro:

e|---------x-----------------x---------|
B|------6--x--5---5-------3--x--1----2-|
G|---------x-----------------x---------|
D|---------x-----------------x---------|
A|--5------x--3-------1------x--0------|
E|---------x-----------------x---------|
					Yeaahhhh…
Verse 1:

Riff 1 [x3]
e|---------x-----------------x---------|
B|------6--x--6---6-------5--x--5----5-|
G|---------x-----------------x---------|
D|---------x-----------------x---------|
A|--5------x--5-------3------x--3------|
E|---------x-----------------x---------|

e|---------x-----------------x---------|
B|------3--x--3---3-------1--x--2----2-|
G|---------x-----------------x---------|
D|---------x-----------------x---------|
A|--1------x--1-------0------x--0------|
E|---------x-----------------x---------|

She loves him more he loves her more
Seems like they aint never let each other go
Laughin and kissin it's a match made in heaven
Behind the rings on their fingers imprints the ink deep in the inner
That has stained their souls' together now
Stained 'soul mates' forever now
Seems like they've made it to the other side
Where the grass is greener and the sky is always blue
And it goes on forever and forever but there is only room for two

Riff 2 [x4]
e|---------x-----------------x---------|
B|------6--x--5---5-------3--x--1----1-|
G|---------x-----------------x---------|
D|---------x-----------------x---------|
A|--5------x--3-------1------x--0------|
E|---------x-----------------x---------|


Deep at night I'm awakened from my dreams
Next door yelling cries mercy she is begging please
Don't end my life your all I need and darlin I will never leave never leave'
And then she prayed on her knees
She said…

Chorus

Riff 2 [x4]                             4th time end with this..
e|---------x-----------------x---------|  X---------|
B|------6--x--5---5-------3--x--1----1-|  X--2----2-|
G|---------x-----------------x---------|  X---------|
D|---------x-----------------x---------|  X---------|
A|--5------x--3-------1------x--0------|  X--0------|
E|---------x-----------------x---------|  X---------|

Save him, save him from the hand that he beats me on
Save him, save him from the hand that he beats me on
Save him, save him from the hand that he beats me on
Save him, save him from the hand that he beats me on

Riff 3
e|---------x-----------------x---------|
B|------6--x--6---6-------6--x--6----6-|
G|---------x-----------------x---------|
D|---------x-----------------x---------|
A|--5------x--5-------5------x--5------|
E|---------x-----------------x---------|


Verse 2

Riff 1 [x2]
e|---------x-----------------x---------|
B|------6--x--6---6-------5--x--5----5-|
G|---------x-----------------x---------|
D|---------x-----------------x---------|
A|--5------x--5-------3------x--3------|
E|---------x-----------------x---------|

e|---------x-----------------x---------|
B|------3--x--3---3-------1--x--2----2-|
G|---------x-----------------x---------|
D|---------x-----------------x---------|
A|--1------x--1-------0------x--0------|
E|---------x-----------------x---------|

Dark clouds cover her paradise.
She covers her eyes and hides behind enemy lines
And she walks through the night with her child in her arms She's thrown back hostage


Riff 2 [x4]
e|---------x-----------------x---------|
B|------6--x--5---5-------3--x--1----1-|
G|---------x-----------------x---------|
D|---------x-----------------x---------|
A|--5------x--3-------1------x--0------|
E|---------x-----------------x---------|

You see twenty years ago when she was just ten years old
Lost in imagination she was left alone
And Pops had nothing to let his anger on
Oh he beat her cold. She used to prey on her knees
She said

Chorus

Riff 2 [x4]                             4th time end with this..
e|---------x-----------------x---------|  X---------|
B|------6--x--5---5-------3--x--1----1-|  X--2----2-|
G|---------x-----------------x---------|  X---------|
D|---------x-----------------x---------|  X---------|
A|--5------x--3-------1------x--0------|  X--0------|
E|---------x-----------------x---------|  X---------|

Save him, save him from the hand that he beats me on
Save him, save him from the hand that he beats me on
Save him, save him from the hand that he beats me on
Save him, save him from the hand that he beats me on

Riff 3
e|---------x-----------------x---------|
B|------6--x--6---6-------6--x--6----6-|
G|---------x-----------------x---------|
D|---------x-----------------x---------|
A|--5------x--5-------5------x--5------|
E|---------x-----------------x---------|


Verse 3

Riff 1 [x2]
e|---------x-----------------x---------|
B|------6--x--6---6-------5--x--5----5-|
G|---------x-----------------x---------|
D|---------x-----------------x---------|
A|--5------x--5-------3------x--3------|
E|---------x-----------------x---------|

e|---------x-----------------x---------|
B|------3--x--3---3-------1--x--2----2-|
G|---------x-----------------x---------|
D|---------x-----------------x---------|
A|--1------x--1-------0------x--0------|
E|---------x-----------------x---------|


Deep at night I'm awakened from my dreams
Next door
Yellin cries mercy she's beggin please
"get up get up"
He brings her to her feet and smacks her down till she falls to the ground


Riff 2 [x12]
e|---------x-----------------x---------|
B|------6--x--5---5-------3--x--1----1-|
G|---------x-----------------x---------|
D|---------x-----------------x---------|
A|--5------x--3-------1------x--0------|
E|---------x-----------------x---------|

Oh and over and over again
He brings her to her feet till she can no longer stand
Oh and still the beating never ends
Oh on and on and on it goes
Until he brings out a gun
And says to her
"Stop crying and bring me my son"

She cries harder and harder
He cries harder and harder
She says
"Baby please don't don't do this"
Oh two shots to her chest
And a blow to his own head
She quickly loses breath
And blood rushes to their bed
And baby cries he cries his eyes out

Chorus

Riff 2 [x4]                             4th time end with this..
e|---------x-----------------x---------|  X---------|
B|------6--x--5---5-------3--x--1----1-|  X--2----2-|
G|---------x-----------------x---------|  X---------|
D|---------x-----------------x---------|  X---------|
A|--5------x--3-------1------x--0------|  X--0------|
E|---------x-----------------x---------|  X---------|

Save him, save him from the hand that he beats me on
Save him, save him from the hand that he beats me on
Save him, save him from the hand that he beats me on
Save him, save him from the hand that he beats me on

Riff 3
e|---------x-----------------x---------|
B|------6--x--6---6-------6--x--6----6-|
G|---------x-----------------x---------|
D|---------x-----------------x---------|
A|--5------x--5-------5------x--5------|
E|---------x-----------------x---------|


Riff 1 [x1] Lightly
e|---------x-----------------x---------|
B|------6--x--6---6-------5--x--5----5-|
G|---------x-----------------x---------|
D|---------x-----------------x---------|
A|--5------x--5-------3------x--3------|
E|---------x-----------------x---------|

e|---------x-----------------x---------|
B|------3--x--3---3-------1--x--2----2-|
G|---------x-----------------x---------|
D|---------x-----------------x---------|
A|--1------x--1-------0------x--0------|
E|---------x-----------------x---------|

She loves him more he loves her more
Seems like they ain't never let each other go
Laughin and kissin
It's a match made in heaven
Tap to rate this tab
# A B C D E F G H I J K L M N O P Q R S T U V W X Y Z