Song name
# A B C D E F G H I J K L M N O P Q R S T U V W X Y Z

Justin Nozuka - Hollow Men tab

Tuning: Half Step Down
or i play it with standard tuning and it sounds good to me...
different, but good

I tabbed this from his youtube video so i know its more correct than the previous tab


Intro/Verse x6 "I remember..."

e|------3----3----3----3-|-----3----3----3----3------|
b|-----3----3----3----3--|----0----0----0----0-------|
G|----0----0----0----0---|---0----0----0----0--------|
D|-----------------------|---------------------------|
A|--3----3----3----3-----|--3----3----3----3---------|
E|-----------------------|---------------------------|

Bridge x2 "oh my lord..."

e|------0----2----3----3----3----3-------------------|
b|-----0----0----0----0----0----0--------------------|
G|----0----0----0----0----0----0---------------------|
D|---------------------------------------------------|
A|---0----2----3----3----3----3----------------------|
E|---------------------------------------------------|

Chorus "take me over..."

e|------7----7----2----2----3----3----2----2---------|
b|-----8----8----0----0----0----0----0----0----------|
G|----0----0----2----2----0----0----0----0-----------|
D|---------------------------------------------------|
A|---7----7----2----2----3----3----2----2------------|
E|---------------------------------------------------| x2 then play Bridge

Back to Intro/Verse x4
        Bridge x2
        Chorus x2

Interlude x2 "please, come save me..."

e|----7---7---7---7-----5---5---5---5-----3---3---3---3-----2---2---2---2--|
b|---0---0---0---0-----0---0---0---0-----0---0---0---0-----0---0---0---0---|
G|--0---0---0---0-----0---0---0---0----0---0---0---0------0---0---0---0----|
D|-------------------------------------------------------------------------|
A|-7---7---7---7-----5---5---5---5---3---3---3---3-----2---2---2---2-------|
E|-------------------------------------------------------------------------|

Back to Chorus x1

flippin' beautiful song that i love to play for MY baby Sarah and our soon to be baby 
enjoy.     -DOYLE
Tap to rate this tab
# A B C D E F G H I J K L M N O P Q R S T U V W X Y Z