Song name
# A B C D E F G H I J K L M N O P Q R S T U V W X Y Z

Justin Sane - Worst Case Scenario Survival Handbook tab

Fun Song to play

Main Riff
 
     Am                 C
e|---------------------------------------------|
B|--------1-1---------------1-1-----1p0--------|
G|-o------2-2---------------0-0---------2p0--o-|
D|-o--2-2-------------0-2-2------------------o-|
A|----0-0---------2h3---3-3--------------------|
E|------------1-----------------3--------------|

Chorus
(i suggest if you are playing it electric to go ahead and play barre chords)
     Am  G  C  F      G Am
e|-------3-----1----|-3----|
B|----1--3--1--1----|-3--1-|
G|-o--2--0--0--2--o-|-0--2-|
D|-o--2--0--2--3--o-|-0--2-|
A|----0--2--3--3----|-2--0-|
E|-------3-----1----|-3----|
Tap to rate this tab
 
# A B C D E F G H I J K L M N O P Q R S T U V W X Y Z