Song name
# A B C D E F G H I J K L M N O P Q R S T U V W X Y Z

Justin Taylor - Cheesy Little Love Song tab

-------------------------------------------------------------------------------
			     Cheesy Little Love Song - Justin Taylor
-------------------------------------------------------------------------------
Tabbed by:Derick Abbott
Email:derick06@hotmail.com

Tuning:Half-step down

this is just the intro. probably isn't right, but it sounds pretty good.

On the last d-sting note (4th fret), I usually substitute e-string 2nd fret to get a 
more bass...the song sounds just as good in standard. in case you dont want to tune down.

e|-------------0---------------------------------------------4--3----12+--|
B|-----0--------0-----2--0----0-------------0----------------0--4--12+----|
G|-----1--2/4---------2--2----2-------------11--13----13------------------|
D|----------------------------------------------11----11---4--------------|
A|-2------2/4------------2--2---2/11--11--------0---0---------------------|
E|---0------------0h2---------------------0-------------------------------|

| /  slide up
| \  slide down
| h  hammer-on
| p  pull-off
| ~  vibrato
| +  harmonic
| x  Mute note
===============================================================================
Tap to rate this tab
 
# A B C D E F G H I J K L M N O P Q R S T U V W X Y Z