Song name
# A B C D E F G H I J K L M N O P Q R S T U V W X Y Z

Justin Taylor - The Train Song tab

-------------------------------------------------------------------------------
			     SONG NAME - Band Name
-------------------------------------------------------------------------------
Tabbed by: Jan Sofsky (germany, 13 years)

Tuning:tuned down half step
I don't tabbed the inro, cause it is to find everywhere in the net... ( I mean the 
first seconds with the harmonics)
I know that this isn't perfectly the song, but it sounds nearly same....
Please Rate!!!!!!!
    (barré with first finger)              
|---2-----3---3--------------------:|---2---7---7---------------------------|
|---2-----3---3------3-----2---2---:|---2---7---7---------7----7------------|
|---2-----2---2------2-----2---2---:|---2---7---7-----6---7----7----0-------|
|-0----X-------------2-----2---2---:|-0---X-5-5---5---7---9----9----2--0----|
|--------------------0-0-x-0-0---0-:|-----------------7---9----9----2-4-----|
|---------3-3---3------------------:|---------------5-----7--7---7----------|

e|-0---|-2-------------------------------------------------------------------|
B|-2---|-2-------------------------------------------------------------------|
G|-2---|-2-------------------------------------------------------------------|
D|-2---|0--X----......-------(I've don't tabbed the deeper part later,-------|
A|-----|----------------------but you can play this part the wohole song.)---|
E|--0--|---------------------------------------------------------------------|

X=tapping

Tap to rate this tab
 
# A B C D E F G H I J K L M N O P Q R S T U V W X Y Z