Song name
# A B C D E F G H I J K L M N O P Q R S T U V W X Y Z

Justin Timberlake - Until The End Of Time tab

Chorus:

e|7-----5-------------------------------|
B|7--10-5--7--3->--------035--7--7->----|
G|7-----6-----4->----------7--7--7->----|
D|9-----7-----4->----------9--9--9->----|
A|9-----7-----5->----------7--9--9->----|
E|7-----5-----x->----------x--x--x->----|


Verse: just base no chords. :(

This melody is also good on play.

|-------------------------|
|------7-----10--7-----7--|
|---9-----9---------9-----|
|9------------------------|
|-------------------------|
|-------------------------|
Tap to rate this tab
# A B C D E F G H I J K L M N O P Q R S T U V W X Y Z