Song name
# A B C D E F G H I J K L M N O P Q R S T U V W X Y Z

Justin Timberlake - Think That She Knows tab

This is and adaptation of V-S-Girl tab (which wasn't quite right). Please Rate!!!!

e---------------------------------------------------------------------------|
b---------------------------------------------------------------------------|
g--------------------------------------------------8--8--8--8--8--8--8--8---|
d--10-10-10-10-10-10-10-10-8--8--8--6--6--6--6--6--6--6--6--6--6--6--6--6---|
a--8--8--8--8--8--8--8--8--6--6--6--4--4--4--4--4---------------------------|
E---------------------------------------------------------------------------|

e--------------------------------------------------------------------------|
b--------------------------------------------------------------------------|
g--10-10-10----------------------------------------------------------------|
d--8--8--8-10-10-10-10-10-10-10-10-----------------------------------------|
a----------8--8--8--8--8--8--8--8------------------------------------------|
E--------------------------------------------------------------------------|
Tap to rate this tab
# A B C D E F G H I J K L M N O P Q R S T U V W X Y Z