Guitaretab - guitar tabs
Song name
# A B C D E F G H I J K L M N O P Q R S T U V W X Y Z

Justin Timberlake - Cry Me A River tab

This is how it goes through the whole song except for one part.
i hope it's good. ENJOY :)
 
[ Tab from: http://www.guitaretab.com/j/justin-timberlake/175798.html ]
Guitar #1
e|-------7------6-----7----4--------------------------------|
B|------9------7-----9----5---------------------------------|
G|-----8------8-----9----6----------------------------------|
D|----6------8-----9----6-----------------------------------|
A|---6------6-----7----4------------------------------------|
E|----------------------------------------------------------|
Guita #2
e|-----------------------------------------------------------|
B|----------------------9------------------------------------|
G|------6-8--986-986-986-------------------------------------|
D|-6-8-9-------(9)-(9)---------------------------------------|
A|-----------------------------------------------------------|
E|-----------------------------------------------------------|

BY HAGAR.
Related for Cry Me A River tab
×
Cry Me A River