Song name
# A B C D E F G H I J K L M N O P Q R S T U V W X Y Z

Justin Timberlake - What Goes Around tab

Tabbed by: Josh Daley

Tuning: E A D G B E (Standard)



Intro:

-------------------|
-------------------|
--2-0-2------------| x3
--------2^3^2-0--0-|
-------------------|
-------------------|

-------------------|
-------------------|
--2-0-2-2-0-2-0-2--|
-------------------|
-------------------|
-------------------|



Verse:

--------------------0-------------------------------|
---------1------------3--3-------0------------------|
------2-----------0------------0----2--2------------|
----2-----------2------------0----------------4-----|
--0-----------3-----------------------------5-------|
---------------------------3------------------------|



Pre-chorus/Chorus/Outro:

--0--------0--------3--------2---^3^2-|
--1--------1---^3^1-0--------3--------|
--2--------0--------0--------2--------|
--2--------2--------0--------0--------|
--0--------3--------2-----------------|
--------------------3-----------------|
Tap to rate this tab
# A B C D E F G H I J K L M N O P Q R S T U V W X Y Z