Guitaretab - guitar tabs
Song name
# A B C D E F G H I J K L M N O P Q R S T U V W X Y Z

Justin Timberlake - Mirrors chords

Highlighted       Show chord diagrams
-----------------------------------------------------------------------------
                             Mirrors - Justin Timberlake
-----------------------------------------------------------------------------

My first tab everrr !!!

Tabbed by: minHminH1996

Tuning: Standard

Chords used:

        D       Bm       G        A

e|------5-------2--------3--------5-----------------------------------------|
B|------7-------3--------3--------5-----------------------------------------|
G|------7-------4--------4--------6-----------------------------------------|
D|------7-------4--------5--------7-----------------------------------------|
A|------5-------2--------5--------7-----------------------------------------|
E|------x-------x--------3--------5-----------------------------------------|


[Intro]


e|---------7----------------7------------------3-------2------------------|
B|------------------------------------------------------------------------|
G|-----7--------7-----6----------6-------4--------------------------------|
D|-----7--------------7------------------5--------------------------------|
A|-----5--------------7------------------5--------------------------------|
E|--------------------5------------------3-------------3------------------|



[Verse 1]
          Bm               A                  G
Aren't you something to admire, 'cause your shine is something like a mirror
          Bm            A             G
And I can't help but notice, you reflect in this heart of mine
        Bm          A          G
If you ever feel alone and the glare makes me hard to find
                    Bm       A                  G
Just know that I'm always paralell on the other side
[ Tab from: http://www.guitaretab.com/j/justin-timberlake/345573.html ]
[Pre-Chorus]
                             Bm                       A
'Cause with your hand in my hand and a pocket full of soul
                        G
I can tell you there's no place we couldn't go
                         Bm                                 A
Just put your hand on the past, I'm here trying to pull you through
                  G
You just gotta be strong

[Chorus]
                              D              
'Cause I don't wanna lose you now
            A                  G              
I'm looking right at the other half of me
                             D          
The vacancy that sat in my heart
     A                  G
Is a space that now you hold
                          D        
Show me how to fight for now
          A                      G                                
And I'll tell you, baby, it was easy
                                       D           
Coming back into you once I figured it out
         A               G
You were right here all along
                        D          A
It's like you're my mirror
                  G                         
My mirror staring back at me
                      D            A
I couldn't get any bigger
                    G
With anyone else beside of me
                             D          
And now it's clear as this promise
           A          G
That we're making two reflections into one
                             D            A
'Cause it's like you're my mirror
                  G
My mirror staring back at me, staring back at me



[Verse 2]
Aren't you something, an original, 'cause it doesn't seem merely assembled
And I can't help but stare 'cause I see truth somewhere in your eyes
Ooh I can't ever change without you, you reflect me, I love that about you
And if I could, I would look at us all the time

[Pre-Chorus]

[Chorus]

[Break]
G    Bm    A    
               Yesterday is history
G    Bm    A  
               Tomorrow's a mystery
G    Bm    A 
               I can see you looking back at me
G            Bm           A
  Keep your eyes on me
A
Baby, keep your eyes on me
Related for Mirrors chords
Mirrors chords by Justin Timberlake