Song name
# A B C D E F G H I J K L M N O P Q R S T U V W X Y Z

Justin Timberlake - Take Back The Night tab

JUSTIN TIMBERLAKE TAKE BACK THE NIGHT

This song is a must learn song only recently been released. Please learn this song.

This part is everything but the pre-chorus (PART 1)

e|----44-2----44-2----22-0----22-0------------------------------------------|
B|----00-0----00-0----00-0----00-0------------------------------------------|
G|----22-2----22-2----22-2----22-2------------------------------------------|
D|----xx-x----xx-x----xx-x----xx-x------------------------------------------|
A|----22-2----22-2----22-0----22-0------------------------------------------|
E|----xx-x----xx-x----xx-x----xx-x------------------------------------------|

Pre-chorus (PART 2)

e|--------------------------2~~~~-----------------------0~~~~---------------|
B|--------------------------0~~~~-----------------------0~~~~---------------|
G|--------------------------2~~~~-----------------------2~~~~---------------|
D|--------------------------x~~~~-----------------------x~~~~---------------|
A|--------------------------2~~~~-----------------------0~~~~---------------|
E|----3-3-3-3-3-3-3-3-3~~~~-x~~~~-3-3-3-3-3-3-3-3-3~~~~-x~~~~---------------|

(The squiggly line mean to hold on to that chord or note for 4 beats.)

Lyrics


[Verse 1] PART 1
 Yeah, this was your city
 You did it all and more, broke every law except for one, babe
 Attraction, are you ready
 I know you feel it
 Pull you nearer ítil you feel it again, oh

 [Bridge] PART 1
 I wanna do something right
 But we can do something better
 Ainít no time like tonight
 And we ainít trying to save it ítil later
 Stay out here living the life
 Nobody cares who we are tomorrow
 You got that lilí something I like
 A little something Iíve been wanting to borrow

 [Pre-chorus] PART 2
 Tonight the nightís, come on surrender
 I wonít lead your love astray, astray, yeah
 Your loveís a weapon
 Give your body some direction
 Thatís my aim
 Then, we could

 [Chorus] PART 1
 Take back the night
 Come on, use me up until thereís nothing left
 Take back the night
 Dizzy, spinning, sweating, you canít catch your breath
 Take back the night
 Ooh, donít know when the sun is rising next
 Take back the night
 So if the feelingís right, then raise your glass and letís

 [Post-Chorus] PART 1
 Take back the night, take back the night
 They goní try to shut us down, Iíll be damned if we goní let them
 Take back the night, take back the night
 You know you goní mess around and find out there ainít no one better

 Take back the night, oh
 Yeah

 [Verse 2] PART 1
 Rare, thereís not too many
 No one but you and crowded rooms, we can do anything (yeah)
 Attraction can drive you crazy
 The way you move, you go crazy, thatís incentive for me

 [Bridge] PART 1
 I wanna do something right
 But we can do something better
 Ainít no time like tonight
 And we ainít trying to save it ítil later
 Stay out here living the life
 Nobody cares who we are tomorrow
 You got that lilí something I like
 A little something Iíve been wanting to borrow

 [Pre-chorus] PART 2
 Tonight the nightís, come on surrender
 I wonít lead your love astray, astray, yeah
 Your loveís a weapon
 Give your body some direction
 Thatís my aim
 Then, we could

 [Chorus] PART 1
 Take back the night
 Come on, use me up until thereís nothing left
 Take back the night
 Dizzy, spinning, sweating, you canít catch your breath
 Take back the night
 Ooh, donít know when the sun is rising next
 Take back the night
 So if the feelingís right, then raise your glass and letís


 [Post-Chorus] PART 1
 Take back the night, take back the night
 They goní try to shut us down, Iíll be damned if we goní let them
 Take back the night, take back the night
 You know you goní mess around and find out there ainít no one better

 [Outro] PART 1
 And the horns say, alright
 And the horns say, alright
 Uh, ooh, and the horns say, alright
 And the horns say
 Doo doo doo doo doo doo doo
 Take it over
 Yeah, yeah

 Take back the night, take back the night...

(Play the last Post-chorus and outro twice)

I hope you enjoyed this song I know I love it have good fun with it and if you 
want me to tab any songs leave them in the comments below.
THANK YOU!

tabbed by: red_devil777
Tap to rate this tab
# A B C D E F G H I J K L M N O P Q R S T U V W X Y Z