Song name
# A B C D E F G H I J K L M N O P Q R S T U V W X Y Z

Justin Timberlake - Sexyback tab

Okay, i don't want to talk bad about another person's transcription - but the other guy 
this transposed to D and D#. sorry, man.
Artist - Justin Timberlake
Song - Sexy Back
Album - futuresexlovesounds
Transcribed by - Alex Widener

Basic song
Guitar 1
e|-----------------------------------------|
b|-----------------------------------------|
G|-2---3--2---3--2-2-2--3---2---3----------|
D|-2---3--2---3--2-2-2--3---2---3----------|
A|-0---1--0---1--0-0-0--1---0---1----------|
E|-----------------------------------------|

"take them to the chorus"
Guitar 2 w/ guitar 1 above
e|-----------------------------------------|
b|-----------------------------------------|
g|-22323--22323--2-2-2--3----2--3----------|
d|-2---3--2---3--2-2-2--3----2--3----------|
a|-0---1--0---1--0-0-0--1----0--1----------|
E|-----------------------------------------|


e|-----------------------------------------|
b|-----------------------------------------|
g|----6-7-6--9-10-9-7----------------------|
D|--7--------------------------------------|
A|-----------------------------------------|
E|-----------------------------------------|

Ending
w/ guitar 1 from beginning
e|-----------------------------------------|
b|-----------1-----------------------------|
g|-2-2-3-2-3---3-2-------------------------|
d|-2---------------------------------------|
a|-0---------------------------------------|
E|-----------------------------------------|
Tap to rate this tab
# A B C D E F G H I J K L M N O P Q R S T U V W X Y Z