Justin Vernon - Song For A Lover Of Long Ago tab

Need to have a capo on 2 to have it sound the same as the song.

Verse
|--------------------------------------------------------------|
|--1----1----1----1---1-1----1----1----1----1------------------|
|-2----2----2----2----------2----2----2----2-------------------|
|--------------------------------------------------------------|
|0---------0---------------0---------0-------------------------|
|-----0---------0----0-0--------0---------0------3-------------|

|--------------------------------------------------|
|----1---1----1---1--1-1-----1---1---1---1--1-1----|
|---2---2----2---2----------2---2---2---2----------|
|--------------------------------------------------|
|------0--------0---3-3--------0-------0---3-3-----|
|-1---------1--------------1-------1---------------|
X2

|-----------------------------------------------------|
|--1----1----1----1---1--1----1----1-----1----1----1--|
|-2----2----2----2-----------2----2----2----2----2----|
|----------0---------0--0-------------0---------0-----|
|2--------------2-----------2--------------2----------|
|-----3--------------------------3--------------------|

|-------------------------|
|-1----1-----1----1-------|
|2-2--0-0-----------------|
|-----------2-2--0-0------|
|---------------------3---|
|-------------------------|

|------------------------------------------------|
|---1---1---1---1--1-1-----1---1---1---1--1-1----|
|--2---2---2---2----------2---2---2---2----------|
|------------------------------------------------|
|-----0-------0---3-3--------0-------0---3-3-----|
|-1-------1--------------1-------1---------------|

Bridge
|----------------------------------------------------|
|--------0----3----0--------1p0----------------------|
|---1----1----1----1---------------------------------|
|----2----2----2----2--------------------------------|
|-----2----2----2----2-------------------------------|
|0---------------------------------------------------|



Chorus
|------------------------------------------|
|--1---1---1---1-------1---1---1---1--1-1--|
|-2---2---2---2-------2---2---2---2--2-2---|
|------------0---2-------------------------|
|----0---3---------------3-------3---------|
|3-------------------1-------1-------------|

|---------------------------------------------|
|--1---1---1---1-------1----1---1---1-1-1-----|
|-2---2---2---2-------2---2----2---2-2-2------|
|------------0--------------------------------|
|----0---3-------3-------3--------3-----------|
|3-------------------1--------1---------------|


Verse
Rain on the bar
Clinging water marks
Any hints of what I had
Because of what I became

Bridge

Verse
Rain you are me
Shake the memory free
Can't squelch the molten soul
Cant chase away the hole

Chorus
I have buried you
Every place I've been
You keep ending up
In my shaking hands

Bridge

Verse
Rain, sound the alarm
The sting my broken arm
The faintest violinist buried in my gut
There are chances and choices sometimes you just have to cut

Chorus
I have buried you
Every place I've been
You keep ending up
In my shaking hands

I have buried you
Every place I've been
You keep ending up
Every place I am

Bridge
Tap to rate this tab
 
# A B C D E F G H I J K L M N O P Q R S T U V W X Y Z