Song name
# A B C D E F G H I J K L M N O P Q R S T U V W X Y Z

Justin Vernon - Hazelton tab

CAPO 1st!

Listen to song to know when play which one part.

Part 1
E|------------0-----------------------0-----------------------0-----------------------0---------|
B|------2-----------2-----------2-----------2-----------2-----------2-----------2-----------2---|
G|---2-----2-----2-----2-----2-----2-----2-----2-----2-----2-----2-----2-----2-----2-----2-----2|
D|----------------------------------------------------------------------------------------------|
A|0-----------------------2---------------------------------------------------------------------|
E|------------------------------------------------2-----------------------2---------------------|


Part 2
E|------------0-----------------------0-----------------------0-----------------------0---------|
B|------2-----------2-----------2-----------2-----------2-----------2-----------2-----------2---|
G|---2-----2-----2-----2-----2-----2-----2-----2-----2-----2-----2-----2-----2-----2-----2-----2|
D|----------------------------------------------------------------------------------------------|
A|----------------------------------------------------------------------------------------------|
E|0-----------------------0-----------------------2-----------------------2---------------------|


Contact: pqnku@aim.com
Add me on Facebook: pqnku
Tap to rate this tab
 
# A B C D E F G H I J K L M N O P Q R S T U V W X Y Z