Justin Vernon - Hazelton tab

This is my first tab, but I'm 90% sure it's correct. :) I've seen the youtube video and
the other tab online, but they don't follow with the song. This will.

		     Hazelton - Justin Vernon

Tabbed by: RP the OG
Email: pyr0b0y12@aol.com (please don't spam me)

Tuning: Standard

Capo 1

Chords: you just need to know A major pretty much.


  A    A2   A3   A4*
e|0----0----0----0------------------------------------------------------|
B|2----2----2----2------------------------------------------------------|
G|2----2----2----2------------------------------------------------------|
D|2----0----0----0------------------------------------------------------|
A|0----2----0----0------------------------------------------------------|
E|0----0----2----0------------------------------------------------------|


Intro/Verses/Chorus

e|-----------0---------------0---------------0---------------0------|
B|-----2---------2-----2---------2-----2---------2-----2---------2--|
G|---2---2-----2-----2---2-----2-----2---2-----2-----2---2-----2----| x4
D|---------2---------------0---------------0---------------0--------|
A|-0---------------2------------------------------------------------|
E|---------------------------------2---------------2----------------|
A                 A2             A3       A3
Settle up, you're calling up the pain

A                 A2             A3       A3
Sitting dead, the sinker and the string...


Bridge/Interlude/Thing

e|-----------0---------------0---------------0---------------0------|
B|-----2---------2-----2---------2-----2---------2-----2---------2--|
G|---2---2-----2-----2---2-----2-----2---2-----2-----2---2-----2----| x4
D|---------2---------------0---------------0---------------0--------|
A|------------------------------------------------------------------|
E|-0---------------0---------------2---------------2----------------|


    A4                 A3
You came, you saw, you sawed her brain,

    A4                                   A3
You cut out all the parts that held your stain.


Back to Verse pattern:
A                    A2              A3           A3
Sitting clad, you're feeling wild to blame

      A                A2                 A3      A3
She's crying as you're climbing down your claims

A                 A2               A3       A3
Sitting up you're counting up your names

A              A2               A3        A3
Seen enough to bend him off the frame


Bridge Pattern:

You came, you saw, you sawed her brain,
You cut out all the parts that held your stain
You clipped, you clawed, to no applause
You lost the will and bought the dying cause

Verse Pattern:

A      A2       A3      A3
    So try to be somebody
    So try to feel somebody
    So try to leave somebody
    So hard to be somebody, but-

(you wreck, and then you run) Repeat

So try to be somebody
So try to feel somebody
So try to leave somebody
So hard to be somebody... (rinse and repeat as long as you want.


IMPORTANT: Do not feel the need to follow this pattern throughout the entire song. If
you do it will become boring and less interesting. As long as you keep the bass notes in
the right place you can do pretty much anything you want as long as you stay within the 
chord and pick in time. Have fun!






*Yes, I realize the chord names are not correct. If you know the real names, feel free
to enlighten me. Also, if you have anything else to contribute please comment or email
me. Gimme 5 stars!

************************************

| /   slide up
| \   slide down
| h   hammer-on
| p   pull-off
| ~   vibrato
| +   harmonic
| x   Mute note
| b   Bend
| pb  Pre-bend
| br  Bend release
| pbr Pre-bend release
| brb Bend release bend

************************************
Tap to rate this tab
 
# A B C D E F G H I J K L M N O P Q R S T U V W X Y Z