Song name
# A B C D E F G H I J K L M N O P Q R S T U V W X Y Z

Justin Vernon - The Whippgrass tab

Justin Vernon - The Whippgrass


Verse

                     Lay low little baby
.   .   .   .    .   .   .   .    .   .   .   .    .   .   .   .    
------0---x-x-x-|------0---x-x-x-|------0---x-x-x-|------0---x-x-x-|
------0---x-x-x-|------0---x-x-x-|------0---x-x-x-|------0---x-x-x-|
------4---x-x-x-|------4---x-x-x-|------2---x-x-x-|------2---x-x-x-|
----------x-x-x-|----------x-x-x-|----------x-x-x-|----------x-x-x-|
------------x---|------------x---|------------x---|------------x---|
0---0-------x---|0---0-------x---|4---4-------x---|4---4-------x---|


                 You're still my precious child
.   .   .   .    .   .   .   .    .   .   .   .    .   .   .   .    
------0---x-x-x-|------0---x-x-x-|------0---x-x-x-|------0---x-x-x-|
------0---x-x-x-|------0---x-x-x-|------0---x-x-x-|------0---x-x-x-|
------4---x-x-x-|------4---x-x-x-|------2---x-x-x-|------2---x-x-x-|
----------x-x-x-|----------x-x-x-|----------x-x-x-|----------x-x-x-|
2---2-------x---|2---2-------x---|------------x---|------------x---|
------------x---|------------x---|4---4-------x---|4---4-------x---|

repeat as needed



Chorus


                     Standing on the whippgrass
.   .   .   .    .   .   .   .    .   .   .   .    .   .   .   .    
------0---x-x-x-|------0---x-x-x-|------0---x-x-x-|------0---x-x-x-|
------5---x-x-x-|------5---x-x-x-|------4---x-x-x-|------4---x-x-x-|
------4---x-x-x-|------4---x-x-x-|------4---x-x-x-|------4---x-x-x-|
----------x-x-x-|----------x-x-x-|----------x-x-x-|----------x-x-x-|
------------x---|------------x---|4---4-------x---|4---4-------x---|
5---5-------x---|5---5-------x---|------------x---|------------x---|


                     Standing on the whippgrass
.   .   .   .    .   .   .   .    .   .   .   .    .   .   .   .    
------0---x-x-x-|------0---x-x-x-|------0---x-0-0-|--0-0-0---0-x-0-|
------5---x-x-x-|------5---x-x-x-|------4---x-4-5-|--5-4-4---4-x-4-|
------4---x-x-x-|------4---x-x-x-|------4---x-4-4-|--4-4-5---5-x-5-|
----------x-x-x-|----------x-x-x-|----------x-x-x-|--x-x-x---x-x-x-|
------------x---|------------x---|4---4-------4-4-|--4-4-4---4---4-|
5---5-------x---|5---5-------x---|----------------|----------------|


                     Sitting on the whippgrass
.   .   .   .    .   .   .   .    .   .   .   .    .   .   .   .    
------0---x-x-x-|------0---x-x-x-|------0---x-0-0-|--0-0-0---0-x-0-|
------5---x-x-x-|------5---x-x-x-|------4---x-4-5-|--5-4-4---4-x-4-|
------4---x-x-x-|------4---x-x-x-|------4---x-4-4-|--4-4-5---5-x-5-|
----------x-x-x-|----------x-x-x-|----------x-x-x-|--x-x-x---x-x-x-|
------------x---|------------x---|4---4-------4-4-|--4-4-4---4---4-|
5---5-------x---|5---5-------x---|----------------|----------------|


Watch and see... last
.   .   .   .    .   .   .   .    
0---------------|0---------------|
0---------------|0---------------|
4---------------|2---------------|
4---------------|2---------------|
0---------------|0---------------|
----------------|0---------------|



Lyrics


 Lay low little babe
 You're still my precious child
 You're all old and grown now
 But you're still the same inside

 Standin' on the whippgrass
 Standin' on the whippgrass
 Sittin' on the whippgrass
 Watch and see how we last

 You're not alone tonight, babe
 You're not so far from your home
 You got the strength of all us, babe
 I give a prayer unknown(?)

 Sittin' on the whippgrass
 Sittin' on the whippgrass
 Just sittin' on the whippgrass
 I'm so full 
 and this is so vast

 I know we'll all be together, babe
 Someday, somehow
 Carry to a higher bound, babe
 It's not a sight or a sound 

 Smokin' around 
 It's within me somehow
 I'll carry to what I am bound
 The truth that I have found 

 Standin' on the whippgrass
 It moves along the whippgrass
 It moves along the whippgrass
 It moves along the whippgrass
 It moves along the whippgrass
 It moves along the whippgrass
 See how it lasts
Tap to rate this tab
# A B C D E F G H I J K L M N O P Q R S T U V W X Y Z