Song name
# A B C D E F G H I J K L M N O P Q R S T U V W X Y Z

Justin Vernon - Song For A Lover Of Long Ago tab

Artist: Justin Vernon
Song: A Song For A Lover Of Long Ago
tabbed by: necriononguitar


. = Palm-Muted
~ = hold note
^ = vibrate
p = pull off
h = hammer on
/ = slide up
\ = slide down
* = harmonic


Tuning: Standard (+15 cents - A4 455)

Capo 2 (chords are relative to the capo)


Dont get ocd about the picking. Im just trying to give an idea of what justin is playing 
and what tuning / capo he is using.
The chord patterns should be spot on, you just need to figure out the picking for yourself.
Dont forget the extra 15 cents on your tuning and the capo on 2nd fret, otherwise the 
recording will be out of tune to what you are playing!



Intro:
E------------------------------------0----------------0---------1~----------|
B---------1--------3~-----------------------1-------------------------------|
G-----2-------2------------2----2-------2--------2---------2---------2------|
D-------2-------2------(2)----------------2----2---------2---------2--------|
A---0-------0----------------0-------0-------------0---------0---------0----|
E---------------------------------------------------------------------------|

E------------------------------------------------------------------------|
B---3---------3--------3--------3---------0---------0--------0-----------|
G--------0--------0--------0--------0---------0---------0--------0-------|
D----------2--------2--------2--------2---------2---------2--------2-----|
A------------------------------------------------------------------------|
E------3--------3--------3--------3---------3---------3--------3---------|

E-----------------------------------------------------------|
B---1---3----------1--------1--------1--------1-------------|
G-----------0----------0--------0--------0--------0---------|
D---------2----------2--------2--------2--------2-----------|
A-----------------------------------------------------------|
E-----3----------1--------1--------1--------1---------------|

E-------------------------------------------------|
B---------0----3---0-------0---------3p0----------|
G-----1----------------1-------1---------1--------|
D-------2----2---2---2---2---2---2----------------|
A-------------------------------------------------|
E---0---------------------------------------------|

E-------------------3--------3-------------------------------3-------------|
B---1------1------------1----1-------1----1--------1---------1----3---3----|
G-----2--------2-----------------2---2--------2--------2----------5---5----|
D-------2--------2----2--------2---2--------2--------2---------------------|
A---0--------0------------0------------0---------0---------0----0---0------|
E--------------------------------------------------------------------------|

E--------------------------------------------------0------------------|
B---1------------------------1------------1---3----1------1-----------|
G-------0----------------0------------0---0---0--------0-------0------|
D---------2----x4-----------------------2-----------------------------|
A---------------------------------------------------------------------|
E-----3----------------2---2---2----1-------1----1---1---1---1---1----|

E-----------------------------------------------|
B-------------0------3-----0-----0-----0--------|
G------1--------1------1-----1-----1-----1------|
D-----2-----------2------2-----2-----2-----2----|
A----2------------------------------------------|
E---0-------------------------------------------|


Verse:
E-----------------------------------------------|
B------1------1------1------1-----1---1---------|
G-----2-----2------2------2---------------------|
D-----------------------------------------------|
A---0------------0------0-----------------------|
E---------0---------------------0---0-----------|

E-----------------------------------------------|
B------1------1------1------1-----1-------------|
G-----2-----2------2------2---------0-----------|
D-----------------------------------------------|
A---0------------0------0-----------------------|
E---------0---------------------3------3--------|

E---------------------------------------------|
B-------1------1------1------1-----1---1------|
G-----2------2------2------2------------------|
D---------------------------------------------|
A----------0-------------0-------3---3--------|
E---1-------------1---------------------------|

E---------------------------------------------|
B-------1------1------1------1-----1---1------|
G-----2------2------2------2------------------|
D---------------------------------------------|
A----------0-------------0-------3---3--------|
E---1-------------1---------------------------|


Bridge:
E---------------------------------------------------|
B-------3------3------3------3----3---3-------------|
G-----4------4------4------4------------------------|
D-----------------0-------------0---0------x2-------|
A---2--------------------2--------------------------|
E----------3----------------------------------------|

E----------------------------------------------------------------------------|
B-----1-------1--------1-----1-----1---------1------1------1------1----1---1-|
G---2---2---0---0----0-----0-----0---------0------0------0------0------------|
D------------------2-----0---------------------------------------------------|
A------------------------------3----------------3-------------3------3---3---|
E--------------------------------------0-1-------------1---------------------|

E-----------------------------------------------|
B-------1------1-------1------1-----1---1-------|
G-----0------0-------0------0-------------------|
D-----------------------------------------------|
A----------3--------------3-------3---3---------|
E---1--------------1----------------------------|


Chorus:
E---------------------------------------------------------------------------|
B-------1------1------1------1------1-------1-----1-----1-----1----1---1----|
G-----0------0------0------0------0-------0-----0-----0-----0---------------|
D------------------------0------2-------------------------------------------|
A----------0------3---------------------------3-----------3------3---3------|
E---3---------------------------------0-1-----------1-----------------------|

E----------------------------------------------------------------------------|
B-------1------1------1------1-------1--------1-----1-----1-----1----1---1---|
G-----0------0------0------0-------0--------0-----0-----0-----0--------------|
D------------------------0---------------------------------------------------|
A----------0------3--------------3--------------3-----------3------3---3-----|
E---3-----------------------------------0-1-----------1----------------------|


Here's how many times you play each part (there are some changes, this is a rough overview):

Intro
Verse x2
Bridge
-> E major interlude
Verse x2
Bridge
Chorus x2
-> E major interlude
Verse x2
Bridge x2
Chorus x4

Pause

Chorus x4
-> E major interlude
End on Am




and that's it! I hope this helped, please rate, comment and correct me!

Cheers...
Tap to rate this tab
# A B C D E F G H I J K L M N O P Q R S T U V W X Y Z