Song name
# A B C D E F G H I J K L M N O P Q R S T U V W X Y Z

Jutta Weinhold - The Beacon Light tab

Weinhold - The Beacon Light

E Standard

I saw that one has ever made a tab for the main riff so i thought
i would give it a whirl since i was just attempting to try it out
and i guess i got it correct :D


intro riff
E)---------------------------------------------------------------|
A)---------------------------------------------------------------|
D)---------------------------------------------------------------| 2x
G)---------------------------------------------------------------|
B)--8-888-----------------6h8------------------------------------|
e)--------1010-88-888-65-----------------------------------------|





Chorus/rhythm
E)-0h2-2-4-5-4-2-0-2-----------------5-4-2-0-2-------------------|
A)-------------------4-555/444/222/1-----------------------------|
D)---------------------------------------------------------------|
G)---------------------------------------------------------------|
B)---------------------------------------------------------------|
e)---------------------------------------------------------------|


if anyone can start to add to this go ahead and drop a comment or
 message me at efrainloyde1987@yahoo.com \m/
Tap to rate this tab
# A B C D E F G H I J K L M N O P Q R S T U V W X Y Z