Song name
# A B C D E F G H I J K L M N O P Q R S T U V W X Y Z

Juvenile - Slow Motion tab

Juvenile ft. Soulja Slim
Slow Motion

s- slide
lrbnm- let ring but not much
~- sustain
lr- let ring

intro, verse

e|-----------4------------|
b|-----5~~~s7---5lr-4-----|
g|------------------------|
d|------------------------|
a|------------------------|
e|------------------------|

chorus

e|-----------4------------|
b|-----5~~~s7---5lr-4-----|
g|------------------------| x3 then 
d|------------------------|
a|------------------------|
e|------------------------|

e|------------------------|
b|-----7-7-5-5-4-4--------|
g|------------------4-----|
d|------------------------|
a|------------------------|
e|------------------------|

tabbed by dan ungson
`ball till we fall`
Tap to rate this tab
# A B C D E F G H I J K L M N O P Q R S T U V W X Y Z