Guitaretab - guitar tabs
Song name
# A B C D E F G H I J K L M N O P Q R S T U V W X Y Z

Jzag96 - Wild Thing tab

-------------------------------------------------------------------------------
			     Wild thing - Jzag96
-------------------------------------------------------------------------------
Tabbed by:Jzag96
Email:J_music_96@yahoo.com

Tuning:Standard


Heres the Chorus

e|---------------------------------------------------------------------------|
B|---------------------------------------------------------------------------|
G|---------------------------------------------------------------------------|
D|------------6-6-6-6-6-6--8---8----6-6-6-6-6--6-----------------------------|
A|---6---6----4-4-4-4-4-4--6---6----4-4-4-4-4--4-----------------------------|
E|---4---4-------------------------------------------------------------------|

Verse
[ Tab from: http://www.guitaretab.com/j/jzag96/192534.html ]
e|----2b-------2b------------------------------------------------------------|
B|----2b-------2b------------------------------------------------------------|
G|----2b-------2b------------------------------------------------------------|
D|----2b-------2b------------------------------------------------------------|
A|-3-------3-----------------------------------------------------------------|
E|-3-------3-----------------------------------------------------------------|

in the last chorus the Jazz guitar comes in with chords

   A    A     D D D D D D    E   E     D D D D D D

e|-0----0-----2-2-2-2-2-2----0---0-----2-2-2-2-2-2---------------------------|
B|-2----2-----3-3-3-3-3-3----0---0-----3-3-3-3-3-3---------------------------|
G|-2----2-----2-2-2-2-2-2----1---1-----2-2-2-2-2-2---------------------------|
D|-2----2-----0-0-0-0-0-0----2---2-----0-0-0-0-0-0---------------------------|
A|-0----0--------------------2---2-------------------------------------------|
E|---------------------------0---0-------------------------------------------|

There you are, Wild Thing

I take requests.

| /  slide up
| \  slide down
| h  hammer-on
| p  pull-off
| ~  vibrato
| +  harmonic
| x  Mute note
===============================================================================
http://jzag96.forumotion.net/
Related for Wild Thing tab
Advertisement will be closed in 10 seconds