Song name
# A B C D E F G H I J K L M N O P Q R S T U V W X Y Z

Jzag96 - Bad Day tab

-------------------------------------------------------------------------------
			     Bad Day - Jzag96
-------------------------------------------------------------------------------
Tabbed by:Jzag96
Email:J_music_96@yahoo.com

Tuning:Standard

This is currently his(my) most popular song

Its very VERY VERY easy to play and memorize(except 1 heckish measure)

The main melody

e|---------------------------------------------------------------------------|
B|---------------------------------------------------------------------------|
G|---------------------------------------------------------------------------|
D|---------------------------------------------------------------------------|
A|----------------------------5-------3--------------------------------------|
E|-0-3--5---0----:|x3---0-3-5---0-3-5-----0--3-5---0-------------------------|


Thats the melody and so is this(the same thing in 5th chords)

e|---------------------------------------------------------------------------|
B|---------------------------------------------------------------------------|
G|---------------------------------------------------------------------------|
D|---------------------------7--------5--------------------------------------|
A|-2--5--7--2---:|x3--2--5-7-5-2--5-7-3--2--5-7-2----------------------------|
E|-0--3--5--0---:|x3--0--3-5---0--3-5----0--3-5-0----------------------------|

Thats like 4 minutes of the song right there.
heres the 1st solo

e|-5/7-6-5-6/7------7-7-7/9-7/9--7/9--7/9--7/9-:|----------------------------|
B|-5/7-6-5-6/7------7-7-7/9-7/9--7/9--7/9--7/9-:|----------------------------|
G|---------------------------------------------------------------------------|
D|---------------------------------------------------------------------------|
A|---------------------------------------------------------------------------|
E|---------------------------------------------------------------------------|

Play all above when needed

then theres the harder solo               1st ending
                          ___________________________________
                         |1.
e|---------------------------------------------------------------:|----------|
B|12-12--15-14--13-14b-----12-12-12h15--12h15--12h15--12h15------:|----------|
G|---------------------------------------------------------------------------|
D|---------------------------------------------------------------------------|
A|---------------------------------------------------------------------------|
E|---------------------------------------------------------------------------|

pm|----|                |--------|

_________________________________________________________________
 |2.
e|-------------------15-----12---------------15-14-13-12------:|-------------|
B|--12--14--15--14------14------13--12--14--------------------:|-------------|
G|---------------------------------------------------------------------------|
D|---------------------------------------------------------------------------|
A|---------------------------------------------------------------------------|
E|---------------------------------------------------------------------------|
(its spread out so you can see each sperate note, its played very fast, i probably 
alot of notes, most are strummed more than once.)


Thats all,really.I beleive, i honestly dont see why everyone loves it thats why i may of 
a part


| /  slide up
| \  slide down
| h  hammer-on
| p  pull-off
| ~  vibrato
| +  harmonic
| x  Mute note
===============================================================================
http://jzag96.forumotion.net/
Tap to rate this tab
# A B C D E F G H I J K L M N O P Q R S T U V W X Y Z