K-os - Highway 7 tab

This is very basic and a work in progress, but I figured anything is better than 
nothing. Hopefully other users will update and improve this tab.

Standard Tuning

e-------------|------------|------------|--------------|
B--------0----|-------0----|-------0----|-0-----0------|
G----4-----4-5|---4-----5-4|---2-----2--|---2-----2---2|
D--5---5------|-4---4------|-2---2-----2|-----2-----2--|
A-------------|------------|------------|--------------|
E-------------|------------|------------|--------------|

Play x3 then

e-------------|------------|------------|--------------|
B--------0----|-------0----|------------|--------------|
G----4-----4-5|---4-----5-4|------------|--------------|
D--5---5------|-4---4------|------------|--------------|
A-------------|------------|-0-2-3-5----|--------------|
E-------------|------------|------------|--------------|
Tap to rate this tab
 
# A B C D E F G H I J K L M N O P Q R S T U V W X Y Z