Song name
# A B C D E F G H I J K L M N O P Q R S T U V W X Y Z

K-os - Emcee Murdah tab

Tabbed By Joel

Standard Tuning


Intro and Verses

e|----------------------------------------------------------------|
B|----------------------------------------------------------------|
G|---0--------------0-------------0-------------0-----------------|
D|-------1-0------------1-0-----------1-0-----------0-0h1---------|
A|---------------------------------------------------------3------|
E|-3---3----------3---3---------3---3---------3---3---------------|


Chrous

e|-3-3-3-3-3---------1-1-1-1-1--------6-6-6-6-6---------------------------|
B|-3-3-3-3-3---------1-1-1-1-1--------8-8-8-8-8---------------------------|
G|-3-3-3-3-3---------2-2-2-2-2--------8-8-8-8-8---------------------------|
D|-5-5-5-5-5---------3-3-3-3-3--------8-8-8-8-8---------------------------|
A|-5-5-5-5-5---------3-3-3-3-3--------6-6-6-6-6---------------------------|
E|-3-3-3-3-3---------1-1-1-1-1--------6-6-6-6-6---------------------------|
Tap to rate this tab
# A B C D E F G H I J K L M N O P Q R S T U V W X Y Z